Song name
# A B C D E F G H I J K L M N O P Q R S T U V W X Y Z

Guster - Rocketship tab

-------------------------------------------------------------------------------
			         ROCKETSHIP Intro - Guster
-------------------------------------------------------------------------------
Tabbed by: hrdcore_kenny
Email: hrdcore_kenny@yahoo.com

So there are a few tabs for "Rocketship" on here, but none of them have the
correct intro. Here's the correct intro. If you want to see a video of me
playing it to prove it's correct, here's the link:
http://www.youtube.com/watch?v=kkxlcAOS660

Tuning: Standard

e |-------7---5---5-------------------------|
B |--0---------------7/8----8----7-5-3-2p0--|
G |-----7---7---7---------7----7------------|
D |-----------------------------------------|
A |-----------------------------------------|
E |-----------------------------------------|

e |--------7---5---5--------------------------|
B |--(0)--------------7/8----8----7-8-10-8\7--| (OPEN B STRING CARRIED OVER FROM PULL-OFF)
G |------7---7---7---------7----7-------------|
D |-------------------------------------------|
A |-------------------------------------------|
E |-------------------------------------------|

e |-------7---5---5--------------------------|
B |-------------------7/8----8----7-5-3-2p0--| (NO OPEN B STRING THIS TIME)
G |-----7---7---7----------7----7------------|
D |------------------------------------------|
A |------------------------------------------|
E |------------------------------------------|

e |--------7---5---5--------------------------|
B |--(0)--------------7/8----8----7-8-10-8\7--| (OPEN B STRING CARRIED OVER FROM PULL-OFF)
G |------7---7---7---------7----7-------------|
D |-------------------------------------------|
A |-------------------------------------------|
E |-------------------------------------------|


************************************

| /   slide up
| \   slide down
| p   pull-off

************************************
Tap to rate this tab
 
# A B C D E F G H I J K L M N O P Q R S T U V W X Y Z