Song name
# A B C D E F G H I J K L M N O P Q R S T U V W X Y Z

Guster - All The Way Up To Heaven tab

Great Song, it took a long time for me to figure this one out. The other version isnt wrong,
but its just not how they play it and it doesnt go as in depth.
It looks really hard, but it really helps if you listen to the song while you do this. 
Tab is above words, Enjoy!

Capo on 3rd Fret (Chords Relative to Capo)
VERSE:
                          D
e-------------------------2-----2--2------0-2----------------2----2--2--|
b-------------------------3-----3--3--3-------3--------------2----2--2--|
G-------------------------2-----2--2----2-------2------------2----2--2--|
D-------------------------0-----0--0-------------------------2----2--2--|
A-----------------------------------------------------------------------|
E-----------------------------------------------------------------------|
    He said to only look up,         He said to never look down
                         D7                                  G
e-----3-----2-------------2-----2--2------0-2-------------------3-------|
b-2-----2-----------------1-----1--1--1-------1-------------0/1---0-----|
G---2-----2---------------2-----2--2----2-------2-------------------0---|
D-----------------------------------------------------------------------|
A-----------------------------------------------------------------------|
E-----------------------------------------------------------------------|  X2
                       Down               is where we came from

CHORUS:

e---------6------------6------5-------5------------6----------6--------8----8-|
b---------6--------6----------5---5----------------6------6------------8-8----|
G---------7----------7--------6-----6--------------7--------7----------9---9--|
D---------8-------------------7--------------------8-------------------10-----|
A---------8-------------------7--------------------8-------------------10-----|
E---------6-------------------5--------------------6-------------------8------|
   And go all the way up to heaven         And go all the way back home

e--------------------2-----2--2------0-2----------2----2--2-------3-----2-|
b--------------------3-----3--3--3-------3--------2----2--2---2-----2-----|
G--------------0-----2-----2--2----2-------2------2----2--2-----2-----2---|
D--------0/2/4-------0-----0--0-------------------2----2--2---------------|
A--0/2/4------------------------------------------------------------------|
E-------------------------------------------------------------------------|
                   (whistles)

e------2-----2--2------0-2--------------3-------|
b------1-----1--1--1-------1--------0/1---0-----|
G------2-----2--2----2-------2--------------0---|
D-----------------------------------------------|
A-----------------------------------------------|
E-----------------------------------------------|
    (whistles)



e-----------------------------2-----2--2------0-2----------------2----2--2--|
b-----------------------------3-----3--3--3-------3--------------2----2--2--|
G-----------------------------2-----2--2----2-------2------------2----2--2--|
D-----------------------------0-----0--0-------------------------2----2--2--|
A---------------------------------------------------------------------------|
E---------------------------------------------------------------------------|
He thought I might need his help              No one gets high on themselves

e-----3-----2-------------2-----2--2------0-2-------------------3-------|
b-2-----2-----------------1-----1--1--1-------1-------------0/1---0-----|
G---2-----2---------------2-----2--2----2-------2-------------------0---|
D-----------------------------------------------------------------------|
A-----------------------------------------------------------------------|
E-----------------------------------------------------------------------|X2
                          I                 just seem so lonely


(CHORUS)
And go all the way up to heaven
And go all the way back home

BRIDGE:
For this Bridge part, just keep on hitting e)--13------13--| over an over
                                           b)-----13-13----|
Stay the way I am today and serve to more disaster
He could tell a fairy tale that's happy ever after
Just relax and green of grass will grow here for a change

                                           C       B          Am       C
Maybe then we'll last a million years and more and more and more and more..

e---------------------------------------------------------------------|
b---------------------------------------------------------------------|
G--------------0------------------------------------------------------|
D--------0/2/4------2/4--2/4--2/4------2/4--2/4-5-4-----2/4--2/4--2/4-|
A--0/2/4--------------------------------------------------------------|
E---------------------------------------------------------------------|
    (Instrumental)

e--------------------------------------5--5--5--5--5---5--5--5--5--5---|
b-------------------------------------3-3--3--3--3--3-2-2--2--2--2--2--|
G--------------------------------0-------2--2--2--2--2---2--2--2--2--2-|
D---5-4/2--0---------------0/2/4---------------------------------------|
A-------------3/2----0/2/4---------------------------------------------|
E----------------------------------------------------------------------|
    (Instrumental)
e--5--5--5--5--5-------7-7--7--10--3--5--7----------|
b-1-1--1--1--1--1-----------------------------------|
G----2--2--2--2--2----------------------------------|
D---------------------------------------------------|
A---------------------------------------------------|
E---------------------------------------------------|
    (Instrumental)



(CHORUS)
And go all the way up to heaven
And go all the way back home


Just Strum these until end of the song!
e----4-----4-----4-----5-----|
b----5-----4-----3-----5-----|
G----4-----4-----4-----6-----|
D----------------------7-----|
A----------------------7-----|
E----------------------5-----|
Tap to rate this tab
 
# A B C D E F G H I J K L M N O P Q R S T U V W X Y Z