Song name
# A B C D E F G H I J K L M N O P Q R S T U V W X Y Z

Guster - Mona Lisa tab

This song is really easy, listen to the song for strumming patterns. It\'s regular tuning.

Intro/verse 1:


e----0------9------0----------------------------------|
B----0------9------0----------------------------------|
G----8------9------6----------------------------------|
D----9------11-----7----------------------------------|
A----9------11-----7----------------------------------|
E----7-------9------5---------------------------------|
(repeat throughout entire verse)

Chorus:

e----0----0----0---------------------------------------|
B----0----0----0----0----------------------------------|
G----9----4----6----2----------------------------------|
D----9----4----6----2----------------------------------|
A----7----2----4----0----------------------------------|
E------------------------------------------------------|
(Repeat throughout entire chorus)

Verse 2:

e----0------9------0----------------------------------|
B----0------9------0----------------------------------|
G----8------9------6----------------------------------|
D----9------11-----7----------------------------------|
A----9------11-----7----------------------------------|
E----7-------9------5---------------------------------|
(repeat throughout entire verse)


Chorus 2:


e----0----0----0-------|
B----0----0----0----0--|
G----9----4----6----2--|
D----9----4----6----2--|
A----7----2----4----0--|
E----------------------|(At the end of chorus, repeat strumming last chord until chorus is over.)

Bridge:

e----0------9------0----------------------------------|
B----0------9------0----------------------------------|
G----8------9------6----------------------------------|
D----9------11-----7----------------------------------|
A----9------11-----7----------------------------------|
E----7-------9------5---------------------------------|
(repeats throughout entire bridge)

Chorus last time:

e----0----0----0-------|
B----0----0----0----0--|
G----9----4----6----2--|
D----9----4----6----2--|
A----7----2----4----0--|
E----------------------|(At the end of chorus, repeat strumming last chord until chorus is over.)
Tap to rate this tab
 
# A B C D E F G H I J K L M N O P Q R S T U V W X Y Z