Song name
# A B C D E F G H I J K L M N O P Q R S T U V W X Y Z

Guster - Rocketship tab

Help us improve GuitareTab! Take a short survey!
-------------------------------------------------------------------------------
			     ROCKETSHIP - Guster

Tabbed by: Riseman
Email: Riseman@unc.edu

x/y: slide from x to y


e  |-----7---5---5--------------------|
B  |---3-----------7h8--8-7--5-3-2p0--|
G  |-4-----7---7----------------------|
D  |----------------------------------|
A  |----------------------------------|
E  |----------------------------------|

e  |-----7---5---5--------------------|
B  |---3-----------7h8--8-7--8-10-8/7-|
G  |-4-----7---7----------------------|
D  |----------------------------------|
A  |----------------------------------|
E  |----------------------------------|

First time posting a public tab. Couldn't resist. 
Feedback Welcome


Posted: Dec 31/05
Related for Rocketship tab