Song name
# A B C D E F G H I J K L M N O P Q R S T U V W X Y Z

Guster - Airport Song tab

capo on 2nd fret, chords measured from capo
verse: drop bass lines
----0-------0----0---0---0----------|
----0-------0----0---0---0----------|
----0-------0----0---0---0----------|
----0-------0----0---0---0----------|
----5-------2----4---5---4----------|
----7---0---3----5---7---5----------|

chorus
---0----0---0---0------------|
---0----0---0---0------------|
---4----2---0---0------------|
---4----2---0---2------------|
---2----0---2---2------------|
------------3----------------|

i use these chords when i play the chorus bc they are easier for me to sing with
---0---0----0---0------------|
---0---0----0---0------------|
---0---0----0---2------------|
---2---0----5---2------------|
---2---2----3---0------------|
-------3---------------------|
Tap to rate this tab
# A B C D E F G H I J K L M N O P Q R S T U V W X Y Z