Song name
# A B C D E F G H I J K L M N O P Q R S T U V W X Y Z

Guster - Careful Acoustic tab

Help us improve GuitareTab! Take a short survey!
Capo 4th fret
Standard tuning

All notes relative to the capo
Listen to the song for strum pattern

Intro
-3--3--------------------------------------------------------------|
-3--3--------------------------------------------------------------|
-0--0--------------------------------------------------------------|
-0--2--x4----------------------------------------------------------|
-2--3--------------------------------------------------------------|
-3--x--------------------------------------------------------------|

Verse 1 (pm all)
-0--0--0--1--1----------------------------------------------------|
-0--0--1--1--1----------------------------------------------------|
-0--2--0--0--0----------------------------------------------------|
-2--2--2--0--0----repeat------------------------------------------|
-2--0--3--2--0----------------------------------------------------|
-0--x--x--3--2----------------------------------------------------|

Pre-Chorus
---0-------------------------------------------------|
---1-------------------------------------------------|
---0-------------------------------------------------|
---2-------------------------------------------------|
---3-------------------------------------------------|
---x-------------------------------------------------|

Chorus
--3--3-----3--3--3--0--2-----------------------------------|
--3--3-----3--3--3--0--3-----------------------------------|
--0--0-----0--0--0--0--3-----------------------------------|
--0--2-x2--0--0--0--2--0--repeat---------------------------|
--2--3-----0--0--2--2--x-----------------------------------|
--3--x-----3--2--x--0--x-----------------------------------|

Verse 2- same as verse 1 minus pm

Repeat Chorus

Bridge
-0--2--3--3--0--3--0--2----------------------------------------------|
-1--3--3--3--0--3--1--3----------------------------------------------|
-0--2--0--0--0--2--0--2----------------------------------------------|
-2--0--0--2--2--0--2--0----------------------------------------------|
-3--x--2--3--2--x--3--x----------------------------------------------|
-x--x--3--x--0--x--x--x----------------------------------------------|

Chorus
Related for Careful Acoustic tab