Song name
# A B C D E F G H I J K L M N O P Q R S T U V W X Y Z

Guster - Happier tab

Song:  Happier
Artist:  Guster
Album:  Lost and Gone Forever
Tabbed By:  TFG12786

Guitar 1:  Electric (Can be substituted with an acoustic-electric)
Guitar 2:  Acoustic-Electric

Intro

Guitar 1

(Palm Muted)
e|---5-44-5-5-44-5-5-44-5-5-444-
b|---5-55-5-5-55-5-5-55-5-5-555-
g|------------------------------
d|------------------------------
a|------------------------------
E|------------------------------

e|---0-0-0-0-0-0-0-7-5------7-----------0-0-0-0-0-0-0-7-5-----|
b|---5-5-5-5-5-5-5-5-5----7---7---------5-5-5-5-5-5-5-5-5-<7>-|
g|---6-6-7-6-7-6-7-6-6--7--------7-6-4--6-6-7-6-7-6-7-6-6-<7>-|
d|---7-7-7-7-7-7-7-7-7-----------x-x-x--7-7-7-7-7-7-7-7-7-<7>-|
a|-------------------------------5-4-2--------------------<7>-|
E|------------------------------------------------------------|

Guitar 2 

(Palm Muted)
e|---0-00---0-00---0-00--------------|
b|---2-22---2-22---3-33--------------|
g|-22-2---22-----22-----2222222------|
d|-22-2---22-----00-----3333333------|
a|-00-0---00-----00-----3333333------|
E|----------------------0000000------|


e|------------|           e|----------|
b|------------|           b|-------3--|
g|---6--7--9--|           g|---6---2--|
d|---7--7--9--|    then   d|---7---0--|
a|---7--5--7--|           a|---7------|
E|---5--5--7--|           E|---5------|


Verse

Guitar 1
e|----------------|
b|----------------|
g|----------------|
d|--7--9--11--9---|  x4
a|--7--9--11--7---|
E|--5--7--9---7---|

Guitar 2
e|----------------------------------|            
b|----------------------------------|            
g|----------------------------1-----|            
d|------7------9------6-------------|  x2 then repeat each twice per chord
a|----7------9------4------2--------|            
E|--5------7------4------0----------|            



First Chorus (Guitar 2)
e|------------------------------------------------------------------------|
b|------------------------------------------------------------------------|
g|-----------------------------------------7-----6-4----------------------|
d|----7--7-\2-----6-7---7-6--7-6--------7-7----7----7---6-7---7-6--6-6-6--|
a|--5--5--5\0----7----7----------9-7-55--5----7--------7------------------|
E|--------------0-----------------------------5-------0-----0-----0-0-0-0-|



First Chorus Outro

Guitar 1
e|---5-44-5-5-44-5-5-44-5-5-444-|
b|---5-55-5-5-55-5-5-55-5-5-555-|
g|------------------------------|
d|------------------------------|
a|------------------------------|
E|------------------------------|

Guitar 2
e|-0----------|
b|-2--3-------|
g|-2--2--2----|
d|-2--0--3----|
a|-0--0--3----|
E|-0-----0----|


At "You've Wasted Every Moment..."

Both Guitars
e|----------------|
b|----------------|
g|----------------|
d|--7--9--11--2---| x2
a|--7--9--11--2---|
E|--5--7--9---0---|


Verse 2 ("Like Your Father Said...)

Guitar 2
e|-----------------------------------------------------------|
b|-----------------------------------------------------------|
g|----4---4-222------4---4-222------4---4-222------4---4-222-|
d|--2-2---2-222----2-2---2-222----2-2---2-222----2-2---2-222-| x2
a|-0----0---000--2-----2---222--4-----4---444--2-----2---222-|
E|-----------------------------------------------------------|

Guitar 1 (come in at 2nd time for Guitar 2)
e|-----------|
b|-----------|
g|----4-2----| (repeat until Chorus)
d|--2--------|
a|-----------|
E|-----------|


Chorus 2

Guitar 2 (same as Chorus 1, x2)

Guitar 1 
--First time through Chorus (With Chorus Effect.  Listen to where these parts come in)--
e|--12-------|  e|--12-10--|  e|--12-------|
b|-----12----|  b|---------|  b|-----12----|
g|-----------|  g|---------|  g|-----------|
d|--------14-|  d|---------|  d|--------14-|
a|-----------|  a|---------|  a|-----------|
E|-----------|  E|---------|  E|-----------|

--Second time through Chorus (No Effect)--
e|------------|
b|------------|
g|------------| x2
d|--7--7--2---|
a|--5--7--2---|
E|--5--5--0---|


At "One More Itch.."

Guitar 1
e|---5-44-5-5-44-5-5-44-5-5-444-|
b|---5-55-5-5-55-5-5-55-5-5-555-|
g|------------------------------|
d|------------------------------|x2
a|------------------------------|
E|------------------------------|


Guitar 2
e|---0-00---0-00---0-00------------|
b|---2-22---2-22---3-33------------|
g|-22-2---22-----22-----2222222----|
d|-22-2---22-----00-----3333333----|x2
a|-00-0---00-----00-----3333333----|
E|----------------------0000000----|


Final Chorus is Same as Chorus 2


Ending

Guitar 1
e|---0-0-0-0-0-0-0-7-5------7-----------|
b|---5-5-5-5-5-5-5-5-5----7---7---------|
g|---6-6-7-6-7-6-7-6-6--7--------7-6-4--|
d|---7-7-7-7-7-7-7-7-7-----------x-x-x--|
a|-------------------------------5-4-2--|
E|--------------------------------------|

e|---0-0-0-0-0-0-0-7-5------7-------------------|
b|---5-5-5-5-5-5-5-5-5----7---7-----------------|
g|---6-6-7-6-7-6-7-6-6--7--------77-66--------6-|
d|---7-7-7-7-7-7-7-7-7-----------xx-xx-9-7-9--7-|
a|-------------------------------55-44-x-x-x--7-|
E|-------------------------------------7-5-7--5-|


Guitar 2

e|---------------------0--| 
b|---------------------2--| 
g|---6--7--9--6--7--9--2--| 
d|---7--7--9--7--7--9--2--| 
a|---7--5--7--7--5--7--0--| 
E|---5--5--7--5--5--7--0--|  
Tap to rate this tab
# A B C D E F G H I J K L M N O P Q R S T U V W X Y Z