Guitaretab - guitar tabs
Song name
# A B C D E F G H I J K L M N O P Q R S T U V W X Y Z

Guster - Come Downstairs And Say Hello tab

Song:Come Downstairs and Say Hello
Band:Guster

This is transcribed using the information of the other "Come Downstairs and Say Hello" 
it is only an octave higher, which is more accurate to how Guster actually plays it.

CAPO: II

All notes are reflective of the capo(i.e. 0 really is the 2nd fret, 2 is the 4th, etc.)

e-----------(2)---------------------------------|
B--------0---0--(3)--(3)------------------------|
G---0----0---2----------------------------------|
D------2---------0----0--0/2--------------------|
A-----------------------------------------------|
E-----------------------------------------------|
    Dorothy moves


E-----------(2)---------------------|
B--------0---0--(3)--(3)------------|
G---0----0---2----------------------|
D------2---------0----0--0/2--------|
A-----------------------------------|
E-----------------------------------|
    to click her ruby shoes

E-----------------------------------|
B------------1----------------------|
G--0------0-----0--0--0/2-----------|
D-----3-----------------------------|
A-----------------------------------|
E-----------------------------------|
   Right into
[ Tab from: http://www.guitaretab.com/g/guster/67726.html ]
E-----------(2)---------------------|
B--------1---0--(3)--(3)------------|
G---0----0---2----------------------|
D------2---------0----0--0/2--------|
A-----------------------------------|
E-----------------------------------|
   the dark side of the moon

E--------------------------------------------------------|
B---------0--0--0/1-----------1--------------------------|
G------0---------------0------0/2------------------------|
D---------------0/2--------------------------------------|
A-------------------------0------------------------------|
E--------------------------------------------------------|
   Someone, Someone could tell me

E---------------------------------------------------|
B---------1--1-1------------------------------------|
G---0-----0--0/2------------------------------------|
D------2--------------------------------------------|
A---------------------------------------------------|
E---------------------------------------------------|

    where I belong
E-----------2---1-----------------------|
B---------------------------------------|
G--------2-----------3------------------|
D---0----3-3--------3------------------|
A---------------------------------------|
E---------------------------------------|

    Be calm     Be  Brave

E---------------(2)---------------------|
B------------1-----(3)---(3)------------|
G-------0----0---2----------------------|
D----------2--------0-----0--0/2--------|
A---------------------------------------|
E---------------------------------------|
 It'll be okay


The rest of the song is switching from Am to C (Reflective of the capo)
Related for Come Downstairs And Say Hello tab