Guitaretab - guitar tabs
Song name
# A B C D E F G H I J K L M N O P Q R S T U V W X Y Z

Guster - One Man Wrecking Machine tab

-----------------------------------------------------------------------
One Man Wrecking Machine - Guster
-----------------------------------------------------------------------
Tabbed by:
Email:

Tuning: Standard

Intro:
e|-----5---2-5----------------------5-----57p5----7p5-7/9/7-5----------|
B|---5---5-----5---3h5-2---3h5-2------5---------5--------------7-5------|
G|-2-------------2-------2-------2------6--------6----------------------|
D|----------------------------------------------------------------------|
A|----------------------------------------------------------------------|
E|----------------------------------------------------------------------|
[ Tab from: http://www.guitaretab.com/g/guster/70996.html ]
Pre-Chorus/end of verse (X2)
e|--57~--74~----------------------------------------------------------|
B|--70~--05~----------------------------------------------------------|
G|--77~--74~----------------------------------------------------------|
D|----------------------------------------------------------------------|
A|----------------------------------------------------------------------|
E|----------------------------------------------------------------------|

Chorus
e|---------------------------------------------------------------------|
B|---------------------------------------------------------------------|
G|-2---7--11--7--2--9--7-----------------------------------------------|
D|-2---7--11--7--2--9--7-----------------------------------------------|
A|-0---5--9---5--0--7--5-----------------------------------------------|
E|---------------------------------------------------------------------|

Post-Chorus into verse
e|-----5---2-5-----7p5-7/9/7-5-----------------------------------------|
B|---5---5-----5---------------7-5-------------------------------------|
G|-2-------------2-----------------------------------------------------|
D|---------------------------------------------------------------------|
A|---------------------------------------------------------------------|
E|---------------------------------------------------------------------|

| /  slide up
| \  slide down
| h  hammer-on
| p  pull-off
| ~  vibrato
| +  harmonic
| x  Mute note
=======================================================================
Related for One Man Wrecking Machine tab