Song name
# A B C D E F G H I J K L M N O P Q R S T U V W X Y Z

Guster - New Underground tab

Song: The New Underground
Band: Guster

Standard Tuning, No Capo

*Iffy about the Chorus*

Intro:
  Em              Bm
--7-7-----7-------7-7-----7--------------------------|
--8-8-----8-------7-7-----7--------------------------|
--9-9-----9-------7-7-----7--------------------------|
--9-9-----9-------9-9-----9--------------------------|
--7-7-----7-------9-9-----9--------------------------|
------------------7-7-----7--------------------------|
  1 + 2 + 3 + 4 + 1 + 2 + 3 + 4 +

Em      Bm
Welcome
        Em       Bm
You're under control
        Em            Bm
And buried like a mole
    Am
A thousand feet below
Waiting
With all that we've got
Our reputation's shot
A ninety-story fall

Em                        Bm
  No one here can make a sound
We're all ghosts in this town
Em                        Bm
 We are standing in the trenches
        Am
Of the new underground

Pipe down
Stay under control
It's getting so absurd
Soon everything will turn
Em
  It's that time
   Bm
To see the Sun
Em
  There'll be a crack
      Bm
And a day will come
Em                  Bm
  Maybe then we'll be the ones
Am
  Never can be sure
The shot heard 'round the world

No one here can make a sound
We're just ghosts in this town
We are standing in the trenches
Of the new underground

Riff:

---------------------------------------------|
---------------------------------------------|
--0------------------------------------------|
----2-----4--0-------------------------------|
------2---------2----------------------------|
---------------------------------------------|


No one here can make a sound
We're just ghosts in this town
We are standing in the trenches
Of the new underground

All the walls are coming down
We're still hanging around
We are digging in the trenches
Of the new underground
Tap to rate this tab
# A B C D E F G H I J K L M N O P Q R S T U V W X Y Z