Song name
# A B C D E F G H I J K L M N O P Q R S T U V W X Y Z

Guster - Ruby Falls tab

This is my first tab, be as brutally honest as you can. There is no book for with this
tabbed out in it, and there's no really detailed tab out there, so I thought I'd do
about it. I can only get the intro, which is basically the only thing that needs
tabs. The rest of the song is basically chords and lead guitar, and there's too much
for me to discern what's going on in those parts of the song. So if anyone wants to tab
out, send it to filmster.adam@gmail.com and I'll put that in here.

Guitar 1:

  F             Dm                  A7        Bb
e|------8-------------------10------5-----5-------6-|
B|10------10-------------10-------------8-----6-----|
G|---10------------------------10-----6-------------|
D|----------------------------------------------8---|
A|--------------------------------------------------|
E|--------------------------------------------------|

Guitar 2:

e|-----------------------------------------------|
B|--------------------3~-------------------------|
G|-----------------2~---------------2~-----------|
D|3~------------0~-------------------------------|
A|--------------------------------------------1~-|
E|-----------------------------------------------|

Guitar 1:

  F                Eb        Bb
e|-----------------------------------6---|
B|10----10h11p10---8---6-----6-----------|
G|-----------------------8-----7---------|
D|---10--------------8-----------8-------|
A|---------------------------------8-----|
E|---------------------------------------|

Guitar 2:

e|---------------------------------------|
B|---------------------------------------|
G|---------------------------------------|
D|3~-------------------------------------|
A|-----------------6~-------\1~----------|
E|---------------------------------------|

Verse 1: (Lyrics are at bottom of page for reference, lined up with chords reperesenting
melodies. For even more precise allignment between lyrics and music, listen to the
Also listen for rhythm.)

Guitar 1:
  F            Dm               A7        Bb
e|------8------------------10-------5---------6---|
B|10------10------------10------5-----8---6-------|
G|---10--------------10-----------6---------------|
D|------------------------------------------8-----|
A|------------------------------------------------|
E|------------------------------------------------|

Guitar 2:

e|------------------------------------------------|
B|------------------------------------------------|
G|----------------2~------------2~----------------|
D|3~-----------0~-------------------------3~------|
A|------------------------------------------------|
D|------------------------------------------------|
Tonight...

Guitar 1:
  F                Eb        Bb
e|-----------------------------------6-|
B|10----10h11p10---8---6-----6---------|
G|---10------------------8-----7-------|
D|-------------------8-----------8-----|
A|---------------------------------8---|
E|-------------------------------------|

Guitar 2:

e|-------------------------------------|
B|-------------------------------------|
G|-------------------------------------|
D|3~-----------------------------------|
A|-----------------6~-------\1~--------|
D|-------------------------------------|
The road to Ruby Falls...

Guitar 1:
  F            Dm            A7          Bb/F
e|---------8---10------------------5---------6---|
B|------10--------10-------------8---8---6-------|
G|---10--------------10--------6---------------7-|
D|10--------------------12---7-------------8-----|
A|-----------------------------------------------|
E|-----------------------------------------------|

Guitar 2:

e|----------------------------------------------|
B|----------------------------------------------|
G|---------------------------2~-----------------|
D|3~-----------0~------------------------3~-----|
A|----------------------------------------------|
D|----------------------------------------------|
And now...

Guitar 1:
  F                Eb        Bb
e|-----------------------------------6-|
B|10----10h11p10---8---6-----6---------|
G|-----------------------8-----7-------|
D|---10--------------8-----------8-----|
A|---------------------------------8---|
E|-------------------------------------|

Guitar 2:

e|-------------------------------------|
B|-------------------------------------|
D|-------------------------------------|
G|3~---------------1~------------------|
A|---------------------------1~--------|
D|-------------------------------------|
They're promising that help...

Transition:

Guitar 1:
  F                Eb        Bb        Db  Bb
e|-------------------------------------4---1---|
B|10----10h11p10---8---6-----6---------6---3---|
G|-----------------------8-----7-------6---3---|
D|---10--------------8-----------8-----6---3---|
A|---------------------------------8---4---1---|
E|---------------------------------------------|

Guitar 2:

e|------------------------------------|
B|10~---------------------------------|
G|------12-\--10---12-10-8---7~-------|
D|------------------------------------|
A|------------------------------------|
D|------------------------------------|
Tap to rate this tab
# A B C D E F G H I J K L M N O P Q R S T U V W X Y Z