Song name
# A B C D E F G H I J K L M N O P Q R S T U V W X Y Z

Guster - Fa Fa tab

-------------------------------------------------------------------------------
			     Fa Fa - Guster
-------------------------------------------------------------------------------
Tabbed by: Eric
Email:

Here's the "bass" part to Fa Fa. Adam actually plays it on a guitar though. I'm pretty 
it's correct. Please leave comments and please rate!

Tuning: Standard
h=hammer on
/=slide
~=let ring

(0:02)
e|-----------------------------------------------------------------------------|
B|-----------------------------------------------------------------------------|
G|-----------------------------------------------------------------------------|
D|-----------------------------------------------------------------------------|
A|----4h6-7-6-6/2--6h9-7------2-4-4--4-6-7-7--/11-9-7-6------------------------|
E|--4-------------4-------7--4-------------------------------------------------|

e|-----------------------------------------------------------------------------|
B|-----------------------------------------------------------------------------|
G|-----------------------------------------------------------------------------|
D|-----------------------------------------------------------------------------|
A|--6-6-6/2---2-4-4--4-6-7-7--7-6-4-2--2-2-0-----------------------------------|
E|-----------4-----------------------------------------------------------------|

(0:35)
e|---------------------------------------------------------------------------|
B|---------------------------------------------------------------------------|
G|---------------------------------------------------------------------------|
D|---------------------------------------------------------------------------|
A|------4~-----------------4~-------2~---------------------------------------|
E|--4~------0~---2~---4~-------0~--------------------------------------------|

(0:52)
e|-----------------------------------------------------------------------------|
B|-----------------------------------------------------------------------------|
G|-----------------------------------------------------------------------------|
D|-----------------------------------------------------------------------------|
A|-----------------------------------------------------------------------------|
E|--4-4-6-6-7-7-9-9--9-9-11-9-7-0-0-0-0-0-0-0-0-2-2-9-9-11-9-7-----------------|

(1:17)
e|-----------------------------------------------------------------------------|
B|-----------------------------------------------------------------------------|
G|-----------------------------------------------------------------------------|
D|-----------------------------------------------------------------------------|
A|-----------------------------------------------------------------------------|
E|--4-4-6-6-7-7-9-9--9-9-11-9-7-0-0-0-0-0-0-0-0-/7-----------------------------|

(1:25)
e|-----------------------------------------------------------------------------|
B|-----------------------------------------------------------------------------|
G|-----------------------------------------------------------------------------|
D|-----------------------------------------------------------------------------|
A|---2-4-4--4-6-7-7--/11-9-7-6--6-6-6/2-----2-4-4--4-6-7-7--7-6-4-2--2-2-0-----|
E|-4---------------------------------------4-----------------------------------|

(1:58)
e|-----------------------------------------------------------------------------|
B|-----------------------------------------------------------------------------|
G|-----------------------------------------------------------------------------|
D|-----------------------------------------------------------------------------|
A|-----------------------------------------------------------------------------|
E|--4-4-6-6-7-7-9-9--9-9-11-9-7-0-0-0-0-0-0-0-0-2-2-9-9-11-9-7-----------------|

(2:23)
e|-----------------------------------------------------------------------------|
B|-----------------------------------------------------------------------------|
G|-----------------------------------------------------------------------------|
D|-----------------------------------------------------------------------------|
A|-----------------------------------------------------------------------------|
E|--4-4-6-6-7-7-9-9--9-9-11-9-7-0-0-0-0-0-0-0-0-/7-----------------------------|

(2:33)
e|-----------------------------------------------------------------------------|
B|-----------------------------------------------------------------------------|
G|-----------------------------------------------------------------------------|
D|-----------------------------------------------------------------------------|
A|-----------------6h9-7-6-6-6/2---6h9-7-6-6/2---------------------------------|
E|--2-4~---2-4~--4----------------4--------------------------------------------|

(2:56)
e|-----------------------------------------------------------------------------|
B|-----------------------------------------------------------------------------|
G|-----------------------------------------------------------------------------|
D|-----------------------------------------------------------------------------|
A|---------444444-777777-222222---------444444---------------------------------|
E|--444444------------------------444444--------000000-/7----------------------|

(3:13)
e|-----------------------------------------------------------------------------|
B|-----------------------------------------------------------------------------|
G|-----------------------------------------------------------------------------|
D|-----------------------------------------------------------------------------|
A|---------4-4-4-6-4-7-4-2-2-2-2--2-4-2-2-2-2-0--------------------------------|
E|-444-6-7---------------------------------------------------------------------|

e|-----------------------------------------------------------------------------|
B|-----------------------------------------------------------------------------|
G|-----------------------------------------------------------------------------|
D|-----------------------------------------------------------------------------|
A|---------4-4-4-6-4-7-4-2-2-2-2-/11-11-11-11-11-11-11-11----------------------|
E|-444-6-7---------------------------------------------------------------------|

(3:30)
e|-----------------------------------------------------------------------------|
B|-----------------------------------------------------------------------------|
G|-----------------------------------------------------------------------------|
D|-----------------------------------------------------------------------------|
A|-----------------------------------------------------------------------------|
E|--4-4-6-6-7-7-9-9--9-9-11-9-7-0-0-0-0-0-0-0-0-2-2-9-9-11-9-7-----------------|

(3:55)
e|-----------------------------------------------------------------------------|
B|-----------------------------------------------------------------------------|
G|-----------------------------------------------------------------------------|
D|-----------------------------------------------------------------------------|
A|-----------------------------------------------------------------------------|
E|--4-4-6-6-7-7-9-9--9-9-11-9-7-0-0-0-0-0-0-0-0-/7-----------------------------|

(4:03)
e|-----------------------------------------------------------------------------|
B|-----------------------------------------------------------------------------|
G|-----------------------------------------------------------------------------|
D|-----------------------------------------------------------------------------|
A|-----------------------------------------------------------------------------|
E|--4-4-6-6-7-7-9-9--9-9-11-9-7-0-0-0-0-0-0-0-0-2-2-9-9-11-9-7-----------------|
Tap to rate this tab
# A B C D E F G H I J K L M N O P Q R S T U V W X Y Z