Song name
# A B C D E F G H I J K L M N O P Q R S T U V W X Y Z

Guthrie Arlo - Wont Be Long tab

----------------------------------------------------------------------------
			   Won't Be Long- The Hives
----------------------------------------------------------------------------
Tabbed by: 21stcentury
Email:

Tuning: Standard
These are the opening chords that Nicholas plays.
e|-------------------------------------------------------------------------|
B|------4--4-4------9--9--9-------9-9-9-9---------2-2-2-2------------------|
G|------6--6-6------11-11-11------9-9-9-9---------4-4-4-4------------------|
D|------6--6-6------11-11-11------9-9-9-9---------4-4-4-4------------------|
A|4-4-4-4--4-4----9-9--9--9---7-7-7-7-7-7---2-2-2-2-2-2-2------------------|
E|-------------------------------------------------------------------------|

Vigilante comes in with this
e|--------------------------------------------------|----------------------|
B|---------14--14-14-14--12-------------------------|--14-12---------------|
G|-11--13---------------------13--11--11--13--------|--------11-11--11--13-|
D|------------------------------------------11----|----------------------11|
A|--------------------------------------------------|----------------------|
E|--------------------------------------------------|----------------------|
Tap to rate this tab
 
# A B C D E F G H I J K L M N O P Q R S T U V W X Y Z