Guthrie Govan - Waves tab

Waves by Guthrie Govan

Tuning: EADGBe

*The numbers under the tabs are the fingers to use*

|----------------9---------------------14/12------------------------------|
|-----------5/7--------------------12-------------------------------7/9---|
|-------------------------------9--------------------------------6--------|
|-----6/7------------9/6-----------------------12/11--------6/7-----------|
|-------------------------7/11-------------------------9/4----------------|
|-0h2---------------------------------------------------------------------|
   1   4     1   3    2    3    1   3    4      2      1     3   2   4

|-------------------------------------------------------------------|
|-------------------9/7---------------------------------------------|
|----------------------------9/7------------------------9/7---------|
|-9/6-------11----------6/7-----------11/9-------------------9/11---|
|--------------9/7----------------7/9------------12/11--------------|
|------7/12---------------------------------7/9---------------------|
   2    3    2  1    4    1    4   1   4     1    4     1     3
Tap to rate this tab
 
# A B C D E F G H I J K L M N O P Q R S T U V W X Y Z