Song name
# A B C D E F G H I J K L M N O P Q R S T U V W X Y Z

Guttermouth - Surfs Up Arsehole tab

Help us improve GuitareTab! Take a short survey!
-------------------------------------------------------------------------------
			     Surf's Up Arsehole - Guttermouth
-------------------------------------------------------------------------------
Tabbed by:rob
Email:brainwashed_monkey@bluebottle.com

Tuning:EADGBe

intro.
e|----------------------------------------|
B|----------------------------------------|
G|----------------------------------------|
D|----------------------------------------|
A|-----7-8-7---------7--------------------|
E|-5-8-------8---5-8---5~-----------------|


pickslide!!!
e|-----------------------------------------------|
B|-----------------------------------------------|
G|---------9--1010--99---------------------9~----|
D|-77--99--9--1010--99--1010--77--1010--7--9~----|
A|-77--99--7--8-8---77--1010--77--1010--7--7~----|
E|-55--77---------------8-8---55--8-8---5--------|


chorus.
e|----------------------------------|
B|----------------------------------|
G|--------------------------7--8----|
D|--7-7\---7-7\---7-7\---7--7--8----|
A|--7-7\---7-7\---7-7\---7--5--6----|
E|--5-5\---5-5\---5-5\---5----------|
    surfs up, arsehole!!


the other bit.
e|-----------------------------------------------------|
B|-----------------------------------------------------|
G|------------------77-1010-99-------------------------|
D|--77-1010-99--x4--77-1010-99--x2--77-1010-99---------|
A|--77-1010-99------55--88--77------77-1010-99--x2-----|
E|--55--88--77----------------------55--88--77---------|


men in tight suits sure look cute.


| /  slide up
| \  slide down
| h  hammer-on
| p  pull-off
| ~  let ring
| +  harmonic
| x  Mute note
===============================================================================
Related for Surfs Up Arsehole tab