Song name
# A B C D E F G H I J K L M N O P Q R S T U V W X Y Z

Guttermouth - My Girlfriend tab

-------------------------------------------------------------------------------
			     My girlfriend - Guttermouth
-------------------------------------------------------------------------------
Tabbed by:johnaldinho
Email:john_the_bum@hotmail.co.uk

Tuning:Standered

SOLO:
e|-----------------------------------------------------------------------8---|
B|---------------------------------------------------------------------8-----|
G|-10-9-7-9--10-10-9-7-9----------------------10-9-7-9-10-10-9-7-9---9-------|
D|-----------------------10-8-7-8-10-10-8-7-8----------------------10--------|
A|---------------------------------------------------------------------------|
E|---------------------------------------------------------------------------|


e|-----------------------------------------------------------------------8---|
B|---------------------------------------------------------------------8-----|
G|-10-9-7-9--10-10-9-7-9----------------------10-9-7-9-10-10-9-7-9---9-----10|
D|-----------------------10-8-7-8-10-10-8-7-8----------------------10------10|
A|---------------------------------------------------------------------------|
E|---------------------------------------------------------------------------|

100% right.... no questions asked :)
Tap to rate this tab
# A B C D E F G H I J K L M N O P Q R S T U V W X Y Z