Song name
# A B C D E F G H I J K L M N O P Q R S T U V W X Y Z

Guttermouth - Turning Japanese tab

--555533-0-0-3-555533-0-0-3----|
--555533-0-0-3-555533-0-0-3----|
-------------------------------|
-------------------------------|   X2
-------------------------------|
-------------------------------|

-55555555--87--------------|
-55555555----8-------------|
---------------------------|
---------------------------|
---------------------------|
---------------------------|

---------------------------|
---------------------------|
---------------------------|
-22222222--567-------------|
-22222222------------------|
Tap to rate this tab
# A B C D E F G H I J K L M N O P Q R S T U V W X Y Z