Song name
# A B C D E F G H I J K L M N O P Q R S T U V W X Y Z

Guttermouth - Vacation tab

INTRO
GTR 1
|------------------  ------------------|
|------------------  ------------------|
|------------------X3------------------|
|------------------  ------------------|
|--------2-0-4h5h7-  --------2-0-4h5h7-|
|-0-0-00-----------  -0-0-00-----------|

GTR 2
|------------------  ------------------|
|------------------  ------------------|
|------------------X3--------7-7-------|
|------------------  --------7-7-7-7-7-|
|------------------  --------5-5-7-7-7-|
|------------------  ------------5-5-5-|

========================================
VERSE
|--------------  -|
|--------------  -|
|--------------X8-|
|--------------  -|
|--------------  -|
|-0--5-7-5-7-5-  -|
  pm..........
========================================
CHORUS
GTR 1
|------------------  ------------------|
|------------------  ------------------|
|------------------X7------------------|
|------------------  ------------------|
|--------2-0-4h5h7-  --------2-0-4h5h7-|
|-0-0-00-----------  -0-0-00-----------|

GTR 1
|------------------  ------------------|
|------------------  ------------------|
|------------------X7--------7-7-------|
|------------------  --------7-7-7-7-7-|
|--------2-0-4h5h7-  --------5-5-7-7-7-|
|-0-0-00-----------  -0-0-00-----5-5-5-|
  pm........................

========================================


INTER A
GTR 1
|-----------  -----------   -|
|-----------  -----------   -|
|-----------X4-----------X12-|
|-----------  -----------   -|
|-----------  -------0-0-   -|
|-----------  --0-0------   -|

GTR 2-CLEAN
|-----------  -----------   -|
|-----------  -----------   -|
|-99-97-----X4-99-97-----X12-|
|-99-97-777-  -99-97-777-   -|
|-77-75-777-  -77-75-777-   -|
|-------555-  -------555-   -|

========================================
INTER B
|------------------  ------------------|
|------------------  ------------------|
|------------------X3--------7-7-------|
|-2-2--------------  -2-2----7-7-7-7-7-|
|-2-2--------------  -2-2----5-5-7-7-7-|
|-0-0--------------  -0-0--------5-5-5-|
  pm.                 pm.
========================================
OUTRO
GTR 2
|------------------  ------------------|
|------------------  ------------------|
|------------------X3--------7-7-------|
|-2-2--------------  -2-2----7-7-7-7-7-|
|-2-2--------------  -2-2----5-5-7-7-7-|
|-0-0--------------  -0-0--------5-5-5-|
  pm.                 pm.
GTR 2
|------------------  ------------------|
|------------------  ------------------|
|------------------X7--------7-7-------|
|------------------  --------7-7-7-7-7-|
|--------2-0-4h5h7-  --------5-5-7-7-7-|
|-0-0-00-----------  -0-0-00-----5-5-5-|

========================================
INTRO X2
VERSE
CHORUS
VERSE
CHORUS
INTER A
INTER B
VERSE
CHORUS
OUTRO

END ON e5

I'm pretty sure that this is 99.2% correct. If you have any suggestions, you can shove them up your ass.
Tap to rate this tab
# A B C D E F G H I J K L M N O P Q R S T U V W X Y Z