Guitaretab - guitar tabs
Song name
# A B C D E F G H I J K L M N O P Q R S T U V W X Y Z

Guttermouth - Bbb tab

-------------------------------------------------------------------------------
			     Guttermouth - BBB
-------------------------------------------------------------------------------
Tabbed by: rob
Email: brainwashed_monkey@hotmail.com

Tuning:EADGBe

intro and verse
e|-----------------------------------------------------|
B|-----------------------------------------------------|
G|-----55-7-88------55-7-88------55-7-88------55-7-88--|
D|--77-55-7-88---77-55-7-88---77-55-7-88---77-55-7-88--|
A|--77-33-5-66---77-33-5-66---77-33-5-66---77-33-5-66--|
E|--55-----------55-----------55-----------55----------|

chorus
e|------------------------------------------------------|
B|------------------------------------------------------|
G|-----55-----------55-----------55-----------55--------|
D|--77-55-5-777--77-55-5-777--77-55-5-777--77-55-5-777--|
A|--77-33-5-777--77-33-5-777--77-33-5-777--77-33-5-777--|
E|--55----3-555--55----3-555--55----3-555--55----3-555--|
[ Tab from: http://www.guitaretab.com/g/guttermouth/178978.html ]
bridge
e|--------------------------------------------------------------|
B|--------------------------------------------------------------|
G|------55/7/8888------55/7/8888------55/7/8888------55/7/8888--|
D|--777-55/7/8888--777-55/7/8888--777-55/7/8888--777-55/7/8888--|
A|--777-33/5/6666--777-33/5/6666--777-33/5/6666--777-33/5/6666--|
E|--555------------555------------555------------555------------|

worship dead junkies
e|------------------------------------------------------------------|
B|--|--pm--|--------|--pm--|--------|--pm--|--------|--pm--|--------|
G|------557-888888------557-888888------557-888888------557-888888--|
D|--7777557-888888--7777557-888888--7777557-888888--7777557-888888--|
A|--7777335-666666--7777335-666666--7777335-666666--7777335-666666--|
E|--5555------------5555------------5555------------5555------------|

beer, bondage and basic reading skills.

| /  slide up
| \  slide down
| pm palm mute
| h  hammer-on
| p  pull-off
| ~  let ring
| +  harmonic
| x  Mute note
===============================================================================
Related for Bbb tab
Advertisement will be closed in 10 seconds