Song name
# A B C D E F G H I J K L M N O P Q R S T U V W X Y Z

Guttermouth - Bakers Dozen tab

Intro:
Guitar 1(Riff 1):
e--------------------------|
B--------------------------|
G-4--4-4-4-4-4--4-4-4-4-4--|
D-x--x-x-x-x-x--x-x-x-x-x--|
A-2--2-2-2-2-2--2-2-2-2-2--|
E--------------------------|
Distorted

Keep doing this While guitar 2 Falls in (Riff 2) :
e--------------------------------------------------------------------|
B--------------------------------------------------------------------|
G------------9--9-9-9-9-9--9-9-9-9-9---9/12-12-12-12-12-12-12-12-----|
D-1---4-2----x--x-x-x-x-x--x-x-x-x-x---x/-x--x--x--x--x--x--x--x-----|
A-2---2-2----7--7-7-7-7-7--7-7-7-7-7---7/10-10-10-10-10-10-10-10-----|
E--------------------------------------------------------------------|
    Clean  | Distorted

Guitar 1(Distorted)(Riff 3.1):
e-------------------------------------------------------------------|
B-------------------------------------------------------------------|
G-4-4-2-4-4-2-4-4-2-4-4-2-4-4-2-4-4-2-2---------7-------------------|
D-4-4-2-4-4-2-4-4-2-4-4-2-4-4-2-4-4-2-2-5-5-5-5-7-7-----------------|
A-2-2-0-2-2-0-2-2-0-2-2-0-2-2-0-2-2-0-0-5-5-5-5-5-7-----------------|
E---------------------------------------3-3-3-3---5-----------------|

Guitar 2(Distorted)(Riff 4):
e-------------------------------------------------------------------------|
B-------------------------------------------------------------------------|
G-8-8-8-8-8-8-8-8-4-4-4-4-4-4-4-4-11-11-11-11-11-11-11-11-7-7-7-7-7-7-7-9-|
D-x-x-x-x-x-x-x-x-x-x-x-x-x-x-x-x--x--x--x--x--x--x--x--x-x-x-x-x-x-x-x-x-|
A-6-6-6-6-6-6-6-6-2-2-2-2-2-2-2-2--9--9--9--9--9--9--9--9-5-5-5-5-5-5-5-7-|
E-------------------------------------------------------------------------|

Guitar 1x2(Distorted)
Riff 3.1
e-------------------------------------------------------------------|
B-------------------------------------------------------------------|
G-4-4-2-4-4-2-4-4-2-4-4-2-4-4-2-4-4-2-2---------7-------------------|
D-4-4-2-4-4-2-4-4-2-4-4-2-4-4-2-4-4-2-2-5-5-5-5-7-7-----------------| X3
A-2-2-0-2-2-0-2-2-0-2-2-0-2-2-0-2-2-0-0-5-5-5-5-5-7-----------------|
E---------------------------------------3-3-3-3---5-----------------|
Fourth Time
Riff 3.2
e-----------------------------------------------------------------|
B-----------------------------------------------------------------|
G-4-4-2-4-4-2-4-4-2-4-4-2-4-4-2-4-4-2-2---------------------------|X1
D-4-4-2-4-4-2-4-4-2-4-4-2-4-4-2-4-4-2-2--5-5----7-----------------|
A-2-2-0-2-2-0-2-2-0-2-2-0-2-2-0-2-2-0-0--5-5----7-----------------|
E----------------------------------------3-3----5-----------------|

Guitar 1x2(Distorted)
Chorus:
e----------------------------------------------------------|
B----------------------------------------------------------|
G---------------7-7-x-------------------7-7-x--------------|
D--------5-5-x--7-7-x-7-7---------5-5-x-7-7-x-7-7----------|
A--------5-5-x--5-5-x-7-7---------5-5-x-5-5-x-7-7----------|
E-5-7-5--3-3-x--------5-5-5-7-5-7-3-3-x-------5-5----------|

Guitar 1x2(Distorted)
e------------|
B------------|
G---------9~-|
D---------9~-|
A---------7~-|
E-5-7-5-7----|

Song :

Intro(Riff 1+Riff 2)
Intro 2nd Part(Riff 3.1+Riff 4) x2
Verse(Riff 3.1+Riff 3.2)
Chorus x2
Verse(Riff 3.1+Riff 3.2)
Chorus x2
(Riff 3.1+Riff 4)x2
Riff 3.1 x4
Chorus x4
Outro

Have fun Playing
Tap to rate this tab
# A B C D E F G H I J K L M N O P Q R S T U V W X Y Z