Song name
# A B C D E F G H I J K L M N O P Q R S T U V W X Y Z

Guttermouth - Mark The Chubby Chaser Newport Sweater Fat tab

Intro
e----------------|--------|
B----------------|--------|
G----------------|--------|
D--4545----------|---5787-|
A--2323-55-77----|---3565-|
E-------33-55--(x3)-------|

Verse
e----------------|--------|
B----------------|--------|
G----------------|--------|
D--4545----------|---5787-|
A--2323-55-77----|---3565-|
E-------33-55--(x3)-------|


Chorus
e--------------------------------------|
B--------------------------------------|
G--------------------------------------|
D-555555--101010101010--999999-999999--|
A-333333--8-8-8-8-8-8---777777-777777--|
E--------------------------------------|

Verse
e----------------|--------|
B----------------|--------|
G----------------|--------|
D--4545----------|---5787-|
A--2323-55-77----|---3565-|
E-------33-55--(x3)-------|


Chorus
e--------------------------------------|
B--------------------------------------|
G--------------------------------------|
D-555555--101010101010--999999-999999--|
A-333333--8-8-8-8-8-8---777777-777777--|
E--------------------------------------|

Bridge
e---------------------------------|------------------------------|
B---------------------------------|------------------------------|
G---------------------------------|------------------------------|
D--555555-------------------------|-555555--777777--888888-888888|
A--333333--555555--777777-777777--|-333333--555555--666666-666666|
E----------333333--555555-555555--|------------------------------|

And then repeat all
Tap to rate this tab
# A B C D E F G H I J K L M N O P Q R S T U V W X Y Z