Song name
# A B C D E F G H I J K L M N O P Q R S T U V W X Y Z

Guttermouth - Do The Hustle tab

***********************************************
***Artist: Guttermouth                      ***
***Song: Do The Hustle                      ***
***Album: Musical Monkey                    ***
***Tunning: Standard                        ***
***By: Victor Aguilar                       ***
***The_Dark_Powerful_And_Evil_Lord@yahoo.com***
***www.junkmonkey.cjb.net                   ***
***********************************************
OK, boys and girls. This is yet another Guttermouth Tab 
made by yours truly. I'm not sure if the intro is completely 
correct but it sounds pretty good. The rest is 99.9% correct.
E-Mail me if you have any corrections, complaints, or if you 
want to send me a stripping monkey that lives on it's own
poo and pee. 
Have Fun...

( ):  harmonic note
  \:  slide down  
  /:  slide up 
  x:  mute
 PM: palm mute, "." under note to palm mute on

INTRO:
|---------------------------|
|---------------------------|
|-----------------8-8-8-----|
|-8--8-8--6--6-6--8-8-8--8--|
|-8--8-8--6--6-6--6-6-6--8--|
|-6--6-6--4--4-4---------6--|

                             GTR 1     GTR 2
|---------------------------|---------|---------|
|---------------------------|---------|---------|
|-----------------8-8-8-----|---------|---------|
|-8--8-8--6--6-6--8-8-8--8--|-(8)-(8)-|-7\14/10-|
|-8--8-8--6--6-6--6-6-6--8--|-(8)-(8)-|-7\14/10-|
|-6--6-6--4--4-4---------6--|-(6)-(6)-|-5\12/ 9-|

                             GTR 1     GTR 2
|---------------------------|---------|------|
|---------------------------|---------|------|
|-----------------8-8-8-----|---------|------|
|-8--8-8--6--6-6--8-8-8--8--|-(8)-(8)-|-x-14-|
|-8--8-8--6--6-6--6-6-6--8--|-(8)-(8)-|-x-14-|
|-6--6-6--4--4-4---------6--|-(6)-(6)-|-x-12-|

                             GTR 1    
|---------------------------|---------|
|---------------------------|---------|
|-----------------8-8-8-----|---------|
|-8--8-8--6--6-6--8-8-8--8--|-(8)-(8)-|
|-8--8-8--6--6-6--6-6-6--8--|-(8)-(8)-|
|-6--6-6--4--4-4---------6--|-(6)-(6)-|

|---------------------------|
|---------------------------|
|-----------------8-8-8-----|
|-8--8-8--6--6-6--8-8-8--8--|
|-8--8-8--6--6-6--6-6-6--8--|
|-6--6-6--4--4-4---------6--|

|---------------------------|
|---------------------------|
|-----------------8-8-8-----|
|-8--8-8--6--6-6--8-8-8--8--|
|-8--8-8--6--6-6--6-6-6--8--|
|-6--6-6--4--4-4---------6--|

(HERES THE FAST PART)
|----------------|
|----------------| X4
|---------8------|
|-8-8-6-6-8--6-6-|
|-8-8-6-6-6--6-6-|
|-6-6-4-4----4-4-|


VERSE:
|---------------------------------|
|---------------------------------| X4
|-----------------8-8-8-8---------|
|-8-8-8-8-6-6-6-6-8-8-8-8-6-6-6-6-|
|-8-8-8-8-6-6-6-6-6-6-6-6-6-6-6-6-|
|-6-6-6-6-4-4-4-4---------4-4-4-4-|

|---------------------------------|
|---------------------------------| X2
|-----------------8-8-8-8---------|
|-8-8-8-8-6-6-6-6-8-8-8-8-6-6-6-6-|
|-8-8-8-8-6-6-6-6-6-6-6-6-6-6-6-6-|
|-6-6-6-6-4-4-4-4---------4-4-4-4-|
PM. . . . . . . . . . . . . . . .

|---------------------------------|
|---------------------------------| X2
|-----------------8-8-8-8---------|
|-8-8-8-8-6-6-6-6-8-8-8-8-6-6-6-6-|
|-8-8-8-8-6-6-6-6-6-6-6-6-6-6-6-6-|
|-6-6-6-6-4-4-4-4---------4-4-4-4-|


CHORUS:
|-------------------|
|-------------------| X2
|---------------8---|
|-8-8--8-6-6--6-8-6-|
|-8-8--8-6-6--6-6-6-|
|-6-6--6-4-4--4---4-|

|-------------------------------------|
|-------------------------------------| X2
|---------------------------------8---|
|-8-8-(6)(6)(6)(6)(6)(6)-8-6-6--6-8-6-|
|-8-8-(6)(6)(6)(6)(6)(6)-8-6-6--6-6-6-|
|-6-6-(4)(4)(4)(4)(4)(4)-6-4-4--4---4-|


VERSE:
|---------------------------------|
|---------------------------------| X4
|-----------------8-8-8-8---------|
|-8-8-8-8-6-6-6-6-8-8-8-8-6-6-6-6-|
|-8-8-8-8-6-6-6-6-6-6-6-6-6-6-6-6-|
|-6-6-6-6-4-4-4-4---------4-4-4-4-|

|---------------------------------|
|---------------------------------| X2
|-----------------8-8-8-8---------|
|-8-8-8-8-6-6-6-6-8-8-8-8-6-6-6-6-|
|-8-8-8-8-6-6-6-6-6-6-6-6-6-6-6-6-|
|-6-6-6-6-4-4-4-4---------4-4-4-4-|
PM. . . . . . . . . . . . . . . .

|---------------------------------|
|---------------------------------| X2
|-----------------8-8-8-8---------|
|-8-8-8-8-6-6-6-6-8-8-8-8-6-6-6-6-|
|-8-8-8-8-6-6-6-6-6-6-6-6-6-6-6-6-|
|-6-6-6-6-4-4-4-4---------4-4-4-4-|


INTERLUDE:
|---------------------------------|
|---------------------------------| X5
|---------------------------------|
|-8-8-8-8-8-8-8-8-6-6-6-6-6-6-6-6-|
|-8-8-8-8-8-8-8-8-6-6-6-6-6-6-6-6-|
|-6-6-6-6-6-6-6-6-4-4-4-4-4-4-4-4-|
PM. . . . . . . . . . . . . . . .

|-----------------|SLOWLY |------|
|-----------------|RELEASE|------|
|-----------------|THE    |------|
|-8-8-8-8-8-8-8-8-|PALM   |-8--8-|
|-8-8-8-8-8-8-8-8-|MUTE   |-8--8-|
|-6-6-6-6-6-6-6-6-|THEN...|-6--6-|
PM. . . . . .  


THEN:(MORE OF THAT FAST PART)
|----------------|
|----------------| X4
|---------8------|
|-8-8-6-6-8--6-6-|
|-8-8-6-6-6--6-6-|
|-6-6-4-4----4-4-|


VERSE:
|---------------------------------|
|---------------------------------| X4
|-----------------8-8-8-8---------|
|-8-8-8-8-6-6-6-6-8-8-8-8-6-6-6-6-|
|-8-8-8-8-6-6-6-6-6-6-6-6-6-6-6-6-|
|-6-6-6-6-4-4-4-4---------4-4-4-4-|


END THE SONG WITH:
|---------------------------|
|---------------------------|
|-----------------8-8-8-----|
|-8--8-8--6--6-6--8-8-8--8--|
|-8--8-8--6--6-6--6-6-6--8--|
|-6--6-6--4--4-4---------6--|

THATS IT.
Tap to rate this tab
 
# A B C D E F G H I J K L M N O P Q R S T U V W X Y Z