Song name
# A B C D E F G H I J K L M N O P Q R S T U V W X Y Z

Guttermouth - Pee In The Shower tab

Help us improve GuitareTab! Take a short survey!
		    Pee In The Shower - GutterMouth

Tabbed by:Lazery
Email:lazeryyy@yahoo.com

Tuning:Standard

   intro
e|------------------------------------------------------------------------|
B|------------------------------------------------------------------------|
G|---------9-----6---7---9------------------------------------------------|
D|-----7---9-----6---7---9------------------------------------------------|
A|-----7---7-----4---5---7------------------------------------------------|
E|-----5------------------------------------------------------------------|

   verse
P.M.
e|----5-x-x---12--12-9-9--10-9-7---------------------------------------------|
B|---------------------------------------------------------------------------|
G|---------------------------------------------------------------------------|
D|---------------------------------------------------------------------------|
A|---------------------------------------------------------------------------|
E|---------------------------------------------------------------------------|
e|---------------------------------------------------------------------------|

chorus

e|------------------------------------------------------------------------|
B|------------------------------------------------------------------------|
G|---------9-----6---7---9------------------------------------------------|
D|-----7---9-----6---7---9------------------------------------------------|
A|-----7---7-----4---5---7------------------------------------------------|
E|-----5------------------------------------------------------------------|


P.M.
e|--55555----77777-------99999------10-10-10-9-7---------------|
B|--------4---------5------------7-----------------------------|
G|-------------------------------------------------------------|
D|-------------------------------------------------------------|
A|-------------------------------------------------------------|
E|-------------------------------------------------------------|
e|-------------------------------------------------------------|


   verse
P.M.
e|----5-x-x---12--12-9-9--10-9-7---------------------------------------------|
B|---------------------------------------------------------------------------|
G|---------------------------------------------------------------------------|
D|---------------------------------------------------------------------------|
A|---------------------------------------------------------------------------|
E|---------------------------------------------------------------------------|
e|---------------------------------------------------------------------------|

Bridge


e|--55555----77777-------99999------10-10-10-9-7---------------|
B|--------4---------5------------7-----------------------------|
G|-------------------------------------------------------------|
D|-------------------------------------------------------------|
A|-------------------------------------------------------------|
E|-------------------------------------------------------------|
e|-------------------------------------------------------------|

e|----9------5------------------------------------------------|
B|----7------7------------------------------------------------|
G|----7------7------------------------------------------------|
D|------------------------------------------------------------|
A|------------------------------------------------------------|
E|------------------------------------------------------------|
e|------------------------------------------------------------|
Related for Pee In The Shower tab