Guitaretab - guitar tabs
Song name
# A B C D E F G H I J K L M N O P Q R S T U V W X Y Z

Guttermouth - Chug A Lug Night tab

---------------------------------------------------------------------------
Chug-A-Lug Night - Guttermouth
---------------------------------------------------------------------------


  Beginning, strum slow		      x2			          x2
e|-----------------------------------------|--------|-----------------------|
B|-7---8---9-------------9---8---7---------|-7---8--|-----------------------|
G|-7---8---9-----9-------9---8---7----7----|-7---8--|---------1313/11------|
D|-7---8---9-----9-------9---8---7----7----|-7---8--|-12\14--------------12-|
A|-5---6---7-----7-------7---6---5----5----|-5---6--|-----------------------|
E|---------------^--------------------^----|--------|-----------------------|

  verse "A lil' smoke on the water..."					   x4
e|--------------------------------------------------------------------------|
B|--------------------------------------------------------------------------|
G|-9-9-------9-9-------9-9-------9-8-7-7-------7-7-------7-7-------7-8-9----|
D|-9-9-------9-9-------9-9-------9-8-7-7-------7-7-------7-7-------7-8-9----|
A|-7-7--x-x--7-7--x-x--7-7--x-x--7-6-5-5--x-x--5-5--x-x--5-5--x-x--5-6-7----|
E|--------------------------------------------------------------------------|

  chorus "Here we go!"                                                     x4
e|--------------------------------------------------------------------------|
B|--------------------------------------------------------------------------|
G|-----------------9-9--9-9--9-9-9--6-6--6-6--6-6-6--7-7--7-7--7-7-7--6-----|
D|-7-7--7-7--7-7-7-9-9--9-9--9-9-9--6-6--6-6--6-6-6--7-7--7-7--7-7-7--6-----|
A|-7-7--7-7--7-7-7-7-7--7-7--7-7-7--4-4--4-4--4-4-4--5-5--5-5--5-5-5--4-----|
E|-5-5--5-5--5-5-5----------------------------------------------------------|

  little solo part
|-----------------------------------------|
|-----------------------------------------|
|---------13--13/11--------------1313/11-|
|-12\14------------------12\14b-----------|
|-----------------------------------------|
|-----------------------------------------|
[ Tab from: http://www.guitaretab.com/g/guttermouth/39108.html ]
  verse "Do you believe in anarchy..."					   x4
e|--------------------------------------------------------------------------|
B|--------------------------------------------------------------------------|
G|-9-9-------9-9-------9-9-------9-8-7-7-------7-7-------7-7-------7-8-9----|
D|-9-9-------9-9-------9-9-------9-8-7-7-------7-7-------7-7-------7-8-9----|
A|-7-7--x-x--7-7--x-x--7-7--x-x--7-6-5-5--x-x--5-5--x-x--5-5--x-x--5-6-7----|
E|--------------------------------------------------------------------------|

  chorus "Here we go!"                                                     x4
e|--------------------------------------------------------------------------|
B|--------------------------------------------------------------------------|
G|-----------------9-9--9-9--9-9-9--6-6--6-6--6-6-6--7-7--7-7--7-7-7--6-----|
D|-7-7--7-7--7-7-7-9-9--9-9--9-9-9--6-6--6-6--6-6-6--7-7--7-7--7-7-7--6-----|
A|-7-7--7-7--7-7-7-7-7--7-7--7-7-7--4-4--4-4--4-4-4--5-5--5-5--5-5-5--4-----|
E|-5-5--5-5--5-5-5----------------------------------------------------------|

  after 2nd chorus, 1 measure of...
e|-----------------------------|
B|-----------------------------|
G|-----------------------------|
D|-7-7-7-7-7-7-7-7-7-7-7-7-7-7-|
A|-7-7-7-7-7-7-7-7-7-7-7-7-7-7-|
E|-5-5-5-5-5-5-5-5-5-5-5-5-5-5-|

  Beginning, strum slow		      x2
e|--------------------------------------------|-----------------------------|
B|-7---8---9-------------9---8---7------------|-----------------------------|
G|-7---8---9-----9-------9---8---7----7-------|-----------------------------|
D|-7---8---9-----9-------9---8---7----7-------|-7-7-7-7-7-7-7-7-7-7-7-7-7-7-|
A|-5---6---7-----7-------7---6---5----5-------|-7-7-7-7-7-7-7-7-7-7-7-7-7-7-|
E|---------------^--------------------^-------|-5-5-5-5-5-5-5-5-5-5-5-5-5-5-|

  chorus "Here we go!"                                                     x8
e|--------------------------------------------------------------------------|
B|--------------------------------------------------------------------------|
G|-----------------9-9--9-9--9-9-9--6-6--6-6--6-6-6--7-7--7-7--7-7-7--6-----|
D|-7-7--7-7--7-7-7-9-9--9-9--9-9-9--6-6--6-6--6-6-6--7-7--7-7--7-7-7--6-----|
A|-7-7--7-7--7-7-7-7-7--7-7--7-7-7--4-4--4-4--4-4-4--5-5--5-5--5-5-5--4-----|
E|-5-5--5-5--5-5-5----------------------------------------------------------|
								      ^end on (let ring)
Related for Chug A Lug Night tab