Song name
# A B C D E F G H I J K L M N O P Q R S T U V W X Y Z

Guttermouth - Hotdog To The Head tab

HotDog To The Head ( A Hotdog Is A Food Not A Party Favor Get it Right Or Pay The Price)
By Guttermouth as heard on the Magnum Opus Album EatYour Face
Standard Tuning     * = Pinch Harmonic
By Scuz

Intro             G          C          A    D
e-----------------3----------0----------0----2--------------|
b-----------------3----------1----------2----3--------------|
g----0-2-0---0-0--0----------0----------2----2-- REPEAT ONCE|
d----------4------0-x5-------2-x5-------2-x8-0-x5-----------|
a-----------------2----0-2-3-3----3-2-0-0----0--------------|
E-----------------3----------0----------0----0--------------|

Main Riff
  G               G               G               G
e-----------------------------------------------------------|
b-----------------------------------------------------------|
g-----------------------------------------------------------|
d-5-5-------------5-5---------5-7-5-5-------------5-5-5-5-5-|
a-5-5-5-5-3-2-3-5-5-5-5-5-3-5-----5-5-5-5-3-2-3-5-5-5-5-5-5-|
E-3-3-------------3-3-------------3-3-------------3-3-3-3-3-|

Verse
  G     B C   C B  A   D       G   B  C    C B A                            
e-----------------------------------------------------------|
b--------------------------10*------------------------------|
g-------4-5----5-4------7-----------4-5----5-4--------------|
d--5----4-5-x8-5-4-7x8--7------5----4-5-x8-5-4-7-x8---------|
a--5-x8-2-3----3-2-7----5------5-x8-2-3----3-2-7------------|
E--3---------------5-----------3---------------5------------|

for the solo just play the verse riff behind it for i am working
on learning the solo but its a tediuos process

song order
Intro
Main Riff
Verse
Main Riff
Verse
Main Riff
Solo
Verse
End
Tap to rate this tab
 
# A B C D E F G H I J K L M N O P Q R S T U V W X Y Z