Song name
# A B C D E F G H I J K L M N O P Q R S T U V W X Y Z

Guttermouth - Dehumanize tab

Guttermouth - Dehumanize
Tabbed by Mathieu Nado

You can easiely figure out the song, it is so simple. Here are the note.
x=palm mute

Intro      x4
------------|
------------|
-------9----|
-11----9----|
-11----7----|
--9---------|

Verse      x4
------------|
-------9----|
-11----9----|
-11----7----|
--9---------|

Chorus      x4
I dont want a baby..
-------------|
-------------|
-----9-------|
-11--9--9----|
-11--7--9----|
--9-----7----|

Verse
Chorus 3x

----------|
----------|
----------|
-11--9----|
-11--9----|
--9--7----|
 xx

----------|
----------|
----------|
-11xx11---|
-11xx11---|
--9xx-9---|

Solo

-------------|
-------------|
-----9-------|
-11--9--9----|
-11--7--9----|
--9-----7----|

----------|
----------|
----------|
-11--9----|
-11--9----|
--9--7----|
 xx

Tap to rate this tab
# A B C D E F G H I J K L M N O P Q R S T U V W X Y Z