Song name
# A B C D E F G H I J K L M N O P Q R S T U V W X Y Z

Guttermouth - Hit Machine tab

E---------------------------------------|
b---------------------------------------|
g--------7---------10---9-9---7---------|
d-9--9-x-7-x-7-7-x-10-x-9-9-x-7-x-9-9---|
a-9--9-x-5-x-7-7-x-8--x-7-7-x-5-x-9-9---|
e-7--7-x---x-5-5-x----x-----x---x-7-7---|
   (play this twice and then this.)

E---------------------------------------|
b---------------------------------------|
g--------7------------------------------|
d-9--9-x-7-x-7-7---7--8-9---------------|
a-9--9-x-5-x-7-7---7--8-9---------------|
e-7--7-x---x-5-5---5--6-7---------------|
(only play this part during the verses though.)
Tap to rate this tab
# A B C D E F G H I J K L M N O P Q R S T U V W X Y Z