Song name
# A B C D E F G H I J K L M N O P Q R S T U V W X Y Z

Guttermouth - Looking Out For 1 tab

Song: Looking out for #1
Artist: Guttermouth
Tabbed by: D.L. Collins

This is as correct as I can hear and is much better than the other tabs I've seen for this song.
It's a fun piratey song! : ) You gotta love Guttermouth.


INTRO:

      PM---     PM---     PM---     PM---     PM---     PM---     PM---   PM-
e:|------------------------------------------------------------------------------|
B:|------------------------------------------------------------------------------|
G:|---------7---------7---------7---------7---------7---------7---------7-----7--|
D:|---------7---------7---------7---------7---------7---------7---------7-----7--|
A:|---5-5-5-5---5-5-5-5---5-5-5-5---5-5-5-5---5-5-5-5---5-5-5-5---5-5-5-5-5-5-5--|
E:|------------------------------------------------------------------------------|

     slight PM here, listen to song to figure it out
e:|---------------------------------------------------------------------------------------------|
B:|---------------------------------------------------------------------------------------------|
G:|---------------------------------------------------------------------------------------------|
D:|---7--7-7---7-------------7-7-7-7---7-------------7-7-7-7---7-------------------------7-7-7--|
A:|---5--5-5---5-5-5-5-5---5-5-5-5-5---5-7-7-7-7---7-5-5-5-5---5-5-5-5-5---5-7-7-7-7---7-5-5-5--|
E:|--------------3-3-3-3---3-------------5-5-5-5---5-------------3-3-3-3---3-5-5-5-5---5--------|


PIRATEY GUITAR SOLO:


e:|---0-2-3-5--5-5-3-2-3--3-3-2-3-5--5-5-3-2---------------------2-3--3-3-2-----------------|
B:|------------------------------------------5--5-5-3-2-3--3-3-5------------5----------2-3--|
G:|---------------------------------------------------------------------------2--2-2-4------|
D:|-----------------------------------------------------------------------------------------|
A:|-----------------------------------------------------------------------------------------|
E:|-----------------------------------------------------------------------------------------|


e:|---0-2-3-5--5-5-3-2-3--3-3-2-3-5--5-5-3-2---------------------2-3--3-3-2-----------------|
B:|------------------------------------------5--5-5-3-2-3--3-3-5------------5----------2-3--|
G:|---------------------------------------------------------------------------2--2-2-4------|
D:|-----------------------------------------------------------------------------------------|
A:|-----------------------------------------------------------------------------------------|
E:|-----------------------------------------------------------------------------------------|


VERSE:

      PM---     PM---     PM---   PM-   |: again, slight PM for this whole part
e:|---------------------------------------------------------------------------------------|
B:|---------------------------------------------------------------------------------------|
G:|---------7---------7---------7-----7---------------------------------------------------|
D:|---------7---------7---------7-----7---7--7-7-7-7--------------7--7-7-7-7--------------|
A:|---5-5-5-5---5-5-5-5---5-5-5-5-5-5-5---5--5-5-5-5--5--5-5-5-5--5--5-5-5-5--7--7-7-7-7--|
E:|---------------------------------------------------3--3-3-3-3--------------5--5-5-5-5--|

      PM continues...
e:|---------------------------------------------------------------------------------------|
B:|---------------------------------------------------------------------------------------|
G:|---------------------------------------------------------------------------------------|
D:|---7--7-7-7-7--------------------------7--7-7-7-7--7--7-7-7-7--------------7--7-7-7-7--|
A:|---5--5-5-5-5--5--5-5-5-5--7--7-7-7-7--5--5-5-5-5--5--5-5-5-5--5--5-5-5-5--5--5-5-5-5--|
E:|---------------3--3-3-3-3--5--5-5-5-5--------------------------3--3-3-3-3--------------|

                                                    end PM :|  CHORUS:
e:|---------------------------------------------------------------------------------------|
B:|---------------------------------------------------------------------------------------|
G:|---------------------------------------------------------7-7-7-7--7-7-7-7--------------|
D:|---------------7--7-7-7-7--------------------------7-7-7-7-7-7-7--7-7-7-7--5--5-5-5-5--|
A:|---7--7-7-7-7--5--5-5-5-5--5--5-5-5-5--7--7-7-7-7--5-5-5-5-5-5-5--5-5-5-5--5--5-5-5-5--|
E:|---5--5-5-5-5--------------3--3-3-3-3--5--5-5-5-5--------------------------3--3-3-3-3--|


e:|---------------------------------------------------------------------------------------|
B:|---------------------------------------------------------------------------------------|
G:|---7--7-7-7-7--------------7--7-7-7-7--------------------------7--7-7-7-7--7--7-7-7-7--|
D:|---7--7-7-7-7--7--7-7-7-7--7--7-7-7-7--5--5-5-5-5--7--7-7-7-7--7--7-7-7-7--7--7-7-7-7--|
A:|---5--5-5-5-5--7--7-7-7-7--5--5-5-5-5--5--5-5-5-5--7--7-7-7-7--5--5-5-5-5--5--5-5-5-5--|
E:|---------------5--5-5-5-5--------------3--3-3-3-3--5--5-5-5-5--------------------------|


e:|---------------------------------------------------------------------------|
B:|---------------------------------------------------------------------------|
G:|---------------7--7-7-7-7--------------7--7-7-7-7--------------------------|
D:|---5--5-5-5-5--7--7-7-7-7--7--7-7-7-7--7--7-7-7-7--5--5-5-5-5--7--7-7-7-7--|
A:|---5--5-5-5-5--5--5-5-5-5--7--7-7-7-7--5--5-5-5-5--5--5-5-5-5--7--7-7-7-7--|
E:|---3--3-3-3-3--------------5--5-5-5-5--------------3--3-3-3-3--5--5-5-5-5--|

      PM---     PM---     PM---   PM-
e:|-------------------------------------------------------------------------|
B:|-------------------------------------------------------------------------|
G:|---------7---------7---------7-----7-------------------------------------|
D:|---------7---------7---------7-----7-------------------------------------|
A:|---5-5-5-5---5-5-5-5---5-5-5-5-5-5-5-------------------------------------|
E:|-------------------------------------------------------------------------|

VERSE 2: aka PIRATE VOCAL SOLO:

       Sounds like a different instrument here. It's not, but I can't figure the notes out.

CHORUS:

e:|---------------------------------------------------------------------------------|
B:|---------------------------------------------------------------------------------|
G:|---7-7-7-7--7-7-7-7--------------7--7-7-7-7--------------7--7-7-7-7--------------|
D:|---7-7-7-7--7-7-7-7--5--5-5-5-5--7--7-7-7-7--7--7-7-7-7--7--7-7-7-7--5--5-5-5-5--|
A:|---5-5-5-5--5-5-5-5--5--5-5-5-5--5--5-5-5-5--7--7-7-7-7--5--5-5-5-5--5--5-5-5-5--|
E:|---------------------3--3-3-3-3--------------5--5-5-5-5--------------3--3-3-3-3--|


e:|---------------------------------------------------------------------------------------|
B:|---------------------------------------------------------------------------------------|
G:|---------------7--7-7-7-7--7--7-7-7-7--------------7--7-7-7-7--------------7--7-7-7-7--|
D:|---7--7-7-7-7--7--7-7-7-7--7--7-7-7-7--5--5-5-5-5--7--7-7-7-7--7--7-7-7-7--7--7-7-7-7--|
A:|---7--7-7-7-7--5--5-5-5-5--5--5-5-5-5--5--5-5-5-5--5--5-5-5-5--7--7-7-7-7--5--5-5-5-5--|
E:|---5--5-5-5-5--------------------------3--3-3-3-3--------------5--5-5-5-5--------------|


e:|---------------------------------|
B:|---------------------------------|
G:|---------------------------7--7--|
D:|---5--5-5-5-5--7--7-7-7-7--7--7--|
A:|---5--5-5-5-5--7--7-7-7-7--5--5--|
E:|---3--3-3-3-3--5--5-5-5-5--------|


PIRATEY GUITAR SOLO:


e:|---0-2-3-5--5-5-3-2-3--3-3-2-3-5--5-5-3-2---------------------2-3--3-3-2-----------------|
B:|------------------------------------------5--5-5-3-2-3--3-3-5------------5----------2-3--|
G:|---------------------------------------------------------------------------2--2-2-4------|
D:|-----------------------------------------------------------------------------------------|
A:|-----------------------------------------------------------------------------------------|
E:|-----------------------------------------------------------------------------------------|


e:|---0-2-3-5--5-5-3-2-3--3-3-2-3-5--5-5-3-2---------------------2-3--3-3-2-----------------|
B:|------------------------------------------5--5-5-3-2-3--3-3-5------------5----------2-3--|
G:|---------------------------------------------------------------------------2--2-2-4------|
D:|-----------------------------------------------------------------------------------------|
A:|-----------------------------------------------------------------------------------------|
E:|-----------------------------------------------------------------------------------------|


      PM---     PM---     PM---   PM-                 ARRR!!!
e:|-------------------------------------------------------------------------|
B:|-------------------------------------------------------------------------|
G:|---------7---------7---------7-----7-------------------------------------|
D:|---------7---------7---------7-----7-------------------------------------|
A:|---5-5-5-5---5-5-5-5---5-5-5-5-5-5-5-------------------------------------|
E:|-------------------------------------------------------------------------|

Tap to rate this tab
 
# A B C D E F G H I J K L M N O P Q R S T U V W X Y Z