Guitaretab - guitar tabs
Song name
# A B C D E F G H I J K L M N O P Q R S T U V W X Y Z

Guttermouth - Suckin Dick For Beer tab

Guttermouth - Suckin' Dick For Beer

i really like this song,its fast and very easy to play, but if there's something 
or wrong please comment it, i didn't figure out the solo, but i'm still working it out.
figure out the strumming of the song listening to it

intro x3
e|-------------------------------------------------------------|
b|-------------------------------------------------------------|
g|-------------------------------------------------------------|
d|--999997h97h9999---------------------------------------------|
a|--777775h75h7777---------------------------------------------|
e|-------------------------------------------------------------|

verse x4
e|-------------------------------------------------------------|
b|-------------------------------------------------------------|
g|-------------------------------------------------------------|
d|--999997h97h99997975555555597777777--------------------------|
a|--777775h75h77775753333333375555555--------------------------|
e|-------------------------------------------------------------|

pre chorus x4
e|-------------------------------------------------------------|
b|-------------------------------------------------------------|
g|-------------------------------------------------------------|
d|-------------------------------------------------------------|
a|---9xxx7-9xxx10-9--------------------------------------------|
e|---7xxx5-7xxx8--7--------------------------------------------|

chorus x3 (the last one is palm muted)
e|-------------------------------------------------------------|
b|-------------------------------------------------------------|
g|-------777777-555555-444444----------------------------------|
d|-------777777-555555-444444----------------------------------|
a|-------555555-333333-222222----------------------------------|
e|-------------------------------------------------------------|
[ Tab from: http://www.guitaretab.com/g/guttermouth/96081.html ]
breakdown
e|-------------------------------------------------------------|
b|-------------------------------------------------------------|
g|----7~------------5~-----------------------------------------|
d|----7~------------5~-----------------------------------------|
a|----5~------------3~-----------------------------------------|
e|------(pickslide)----(pickslide)-----------------------------|

verse x2
e|-------------------------------------------------------------|
b|-------------------------------------------------------------|
g|-------------------------------------------------------------|
d|--999997h97h99997975555555597777777--------------------------|
a|--777775h75h77775753333333375555555--------------------------|
e|-------------------------------------------------------------|

pre chorusx4
e|-------------------------------------------------------------|
b|-------------------------------------------------------------|
g|-------------------------------------------------------------|
d|-------------------------------------------------------------|
a|---9xxx7-9xxx10-9xxx-----------------------------------------|
e|---7xxx5-7xxx8--7xxx-----------------------------------------|

chorus x3 (the last one is palm muted)
e|-------------------------------------------------------------|
b|-------------------------------------------------------------|
g|-------777777-555555-444444----------------------------------|
d|-------777777-555555-444444----------------------------------|
a|-------555555-333333-222222----------------------------------|
e|-------------------------------------------------------------|

breakdown
e|-------------------------------------------------------------|
b|-------------------------------------------------------------|
g|----7~------------5~-----------------------------------------|
d|----7~------------5~-----------------------------------------|
a|----5~------------3~-----------------------------------------|
e|------(pickslide)----(pickslide)-----------------------------|

still working on the solo, but the second guitar during the solo just play the intro

thats all!
Related for Suckin Dick For Beer tab
×
Best way to learn
"Suckin Dick For Beer"