Song name
# A B C D E F G H I J K L M N O P Q R S T U V W X Y Z

Guttermouth - Toilet tab

Help us improve GuitareTab! Take a short survey!
I dont know if this really is 100% ok but...

Intro:
DISTORDED
|----------------------|
|----------------------|
|------7-7--5-6--------|
|-3-3--7-7--5-6--------|x4
|-3-3--5-5--3-4--------|
|-1-1------------------|


Verse

|-------------------------------|
|-------------------------------|
|------7-7--5--6--5--6--5--6----|
|-3-3--7-7--5--6--5--6--5--6----|
|-3-3--5-5--3--4--3--4--3--4----|
|-1-1---------------------------|

Comments r welcomed or email me agus_blanco00@hotmail.com TY;)
Related for Toilet tab