Guitaretab - guitar tabs
Song name
# A B C D E F G H I J K L M N O P Q R S T U V W X Y Z

Guy Forsyth - Adams Rib tab

Guy Forsyth - Adamīs rib  by brymo@mail.com

Standard tuning

Intro

-----0----0-----0------0------------------------|
-----1----1-----1------1------------------------|
-----2----2-----2------2------------------------|    x 2
------------------------------------------------|
--0----0-----0------0----------0----------------|
---------------------------0--------------------|

Verse

-----0---0-----------------------0--------------0--------0------0--------|
-----1---1----3b--3b-p1----------1--------------0----------3b------0-----|
-----2---2---------------2-------2--------------1---0h1------------------|
------------------------------------------------2------------------------|
--0----0---0------------------0------0----------2------------------------|
---------------------------------------3--1--0--0------------------------|
[ Tab from: http://www.guitaretab.com/g/guy-forsyth/114928.html ]
----------------------------------------    ---2---------|
---0------0----0----0----0----------------    ---1-------|
---0h1p0--1----1----1----1----------------    ---2-------| Some verses end
---2------2----2----2----2----------------    ---2-------| on this chord
--------------------------------------0--       ---0-----|
-0------0----0----0----0------0--2--4-----    -----------|

Chorus

----------------------------------------------------------0-----0--------|
-----3---3---3p1--3--1----3b--3b-p1------------------0h1----3b-----0-----|
-----2---2---2----2--2--------------2-------------1----------------------|
--------------------------------------------------2----------------------|
--0----0---0------------0-------------0-----------2----------------------|
-----------------------------------------3--1--0--0----------------------|

---------------|
---------------|
--9--7--5--4---|
---------------|  x 2
--7--5--3--2---|
---------------|

-------------------------|
-------------------------|
--9--7-------------------|
-------------------------|
--7--5---------------0---|
---------0--2-4--0-------|

www.guyforsyth.com