Song name
# A B C D E F G H I J K L M N O P Q R S T U V W X Y Z

Gwar - Mary Anne tab

Song: Mary Anne
Album: We Kill Everything
Artist: Gwar

Tuning: Half-step down
Low To High: Eb-Ab-Db-Gb-Bb-Eb

INTRO
e ----------------------------------------------------------------------|
b -----7-7-9-9h11-7-----------------------------------------------------|
g ----------------------------------------------------------------------|
d -/7-----------------7--------------------7----------7----------7------|
a -/5-----------------5--------------------5----------5----------5------|
E ----------------------------------------------------------------------|
                                 Pick Slide Pick Slide Pick Slide
00:30 Play 4X II guitars Here
e ------------------------------------------------|
b -7-7-9-9h11--7-7-9-9h11--7-7-9-9h11--7-7-9-9h11-|
g -x-----------x-----------x-----------x----------|
d -7-----------5-----------4-----------5----------|
a -5-----------5-----------5-----------5----------|
E ------------------------------------------------|


e ------------------------------------------|------------------------------|
b ------------------------------------------|------------------------------|
g ------------------------------------------|------------------------------|
d --xx77-xx77-xx77-xx77--7----5----4--------|-------------------------7-7--|
a --xx55-xx55-xx55-xx55--5----5----5----7---|-2-2-x-x-5-5-x-x-7-7-x-x-5-5--|
E --------------------------------------5---|-0-0-x-x-3-3-x-x-5-5-x-x------|

1:38
e -----------------------------------------------------------|
b -----------------------------------------------------------|
g -----------------------------------------------------------|
d -----------------------------------------------------------|
a -2-x-x-x-2-x-x-x-2-x-x-x-2-x-x-x-2-x-x-x-2-x-x-x-2-x-x-x---|
E -O-x-x-x-O-x-x-x-O-x-x-x-O-x-x-x-O-x-x-x-O-x-x-x-O-x-x-x---|


2:00
e --------------------------------------|------------------------------|
b --------------------------------------|------------------------------|
g --------------------------------------|------------------------------|
d -7-~-~-~-~-~-~-~-~-7----5----4--------|-------------------------7-7--|
a -5-~-~-~-~-~-~-~-~-5----5----5----7---|-2-2-x-x-5-5-x-x-7-7-x-x-5-5--|
E ----------------------------------5---|-0-0-x-x-3-3-x-x-5-5-x-x------|

Well, that's about it Ultimate-Guitar!
I would say that this is a great song by Gwar.
I sure hope this gets approved because I would love to see it up on this website, it's 
going to be my second APPROVED tab if it gets through.
Tap to rate this tab
# A B C D E F G H I J K L M N O P Q R S T U V W X Y Z