Song name
# A B C D E F G H I J K L M N O P Q R S T U V W X Y Z

Gwar - Gor Gor tab

The high squealing notes from the intro of "Gor-Gor". Spitfire didn't have them in 
his tab. It's fairly easy, I'm surprised no one else has posted it.

All string tuned down one half step.

Rhythm (Played to the beat of the drum)
|---------------------------------|
|---------------------------------|
|---------------------------------|
|---------------------------------|
|--8---8---8---8---8---8---8---8--|
|--6---6---6---6---6---6---6---6--|

Lead
|-----------17-15~-13~~------------13-12~~--|
|-----13-13------------------13-13----------|
|--14---------------------14----------------|
|-------------------------------------------|
|-------------------------------------------|
|-------------------------------------------|
                                      ^^
                                      You could also do 
                                      rapid hammer-on/pull-offs
                                      from 12 to 13.

|-----------19-18~~---16-16-14-14-16-14~~--|
|-----14-14--------------------------------|
|--15--------------------------------------|
|------------------------------------------|
|------------------------------------------|
|------------------------------------------|
                                     ^^
                                     Bend as Much as you can
                                     then slide down

During some shows around 1990/1991, the end of "Gor-Gor" 
would be very long and drawn out, and contained portions 
of "Rock-a-Bye Baby". Here's a common way to do it, but 
improvising with the 10-21 frets is key. The purpose is
to sound similar, but mess around with it to sound strange.

|-----------17-15~-13~~------------13-12~~--|
|-----13-13------------------13-13----------|
|--14---------------------14----------------|
|-------------------------------------------|
|-------------------------------------------|
|-------------------------------------------|

|-----------/21b~~-20~~---18-18-15-15-17-16~~--|
|-----14-14------------------------------------|
|--15------------------------------------------|
|----------------------------------------------|
|----------------------------------------------|
|----------------------------------------------|
            ^^
            This is where to put in your own
            notes, but keep the general sound and
            stay between the 10th and highest fret.

Repeat the above numerous times, but never play it the same way.

Rock-A-Bye Baby Part (Play it the final time)
|-----------17-15~-13~~------------13-12~~--|
|-----13-13------------------13-13----------|
|--14---------------------14----------------|
|-------------------------------------------|
|-------------------------------------------|
|-------------------------------------------|

|--10----12--/18-17-13~--15-10-12-13~~--|
|-----13--------------------------------|
|---------------------------------------|
|---------------------------------------|
|---------------------------------------|
|---------------------------------------|



Legend

~    Vibrato/Hold Note
/    Slide


Okay then, that's it. I hope I helped with it. I've seen a few tabs for this song, 
but none have had the full intro. Feedback is welcomed...

-DH
=================================================================
Tap to rate this tab
# A B C D E F G H I J K L M N O P Q R S T U V W X Y Z