Song name
# A B C D E F G H I J K L M N O P Q R S T U V W X Y Z

Gwar - Tune From Da Moon tab

Song: Tune from da Moon
Album: We kill Everything

This is the Lead intro and is repeated a lot in the Song
 -----------------------------------|
|-------6---5----------6---5--------|
|---7b9---7---7-5--7b9---7---7-5----|
|-----------------------------------|
|-----------------------------------|
 -----------------------------------|

Balsac Kicks in at 00:44 pick slide into this riff
 -------------------------------------------|
|-------------------------------------------|
|-------------------------------------------|
|-------------------------------------------|
|---777-777-6-666-5-2--777-777-6-666-5-2----|
 ---555-555-4-444-3-O--555-555-4-444-3-O----|

Fast part at 1:43 Keep playin it till...You Broke it!
 -------------------------------------------|
|-------------------------------------------|
|-------------------------------------------|
|--------7-8----------------7-8-------------|
|---77-7-5-6-77-7-5-2--77-7-5-6-77-7-5-2----|
 ---55-5-----55-5-3-O--55-5-----55-5-3-O----|

             You Broke it!              Why's you Break it!
 ----------------------------------------------------|
|----------------------------------------------------|
|----------------9b1Or9----------------5-------------|
|----------------9b1Or9------------------7-----------|
|---99-9-99-9-9----------77-7-77-7-7-------7---------|
 ---77-7-77-7-7----------55-5-55-5-5---------5-------|
                                      Muted the 2nd time
                                           Through
Tap to rate this tab
 
# A B C D E F G H I J K L M N O P Q R S T U V W X Y Z