Gwar - Maggots tab

Artist:Gwar
Song:maggots
Album:scumdogs of the universe


hi this is my first tab but most of you might not know who
gwar is or the song.and my email address is beba102507@aol.com


intro(flys first)
                                     go!

e-------------------------------------------------------------|
b-------------------------------------------------------------|
g-------------------------------------------------------------|
d--7-5-7-3----7-5-7-4-----7-5-7-3-----------------------------|
a--5-3-5-1----5-3-5-2-----5-3-5-1-----------------------------|
E-------------------------------------------------------------|


verse

e-------------------------------------------------------------|
b-------------------------------------------------------------|
g-------------------------------------------------------------|
d------7-5-7------7-5-7---------------------------------------|
a--3-5-5-3-5--3-5-5-3-5---------------------------------------|
E--1-3--------1-3---------------------------------------------|


sorry i dont have the whole song but this is the best i can do
for now.well have fun learning this song.
Tap to rate this tab
 
# A B C D E F G H I J K L M N O P Q R S T U V W X Y Z