Song name
# A B C D E F G H I J K L M N O P Q R S T U V W X Y Z

Gwar - Escape From The Mooselodge tab

Artist: Gwar 
Song: Escape from the Moose Lodge
Album: We kill Everything

E-Flat

Intro..use some sort of Delay effect or Pedal
 ---------------------------|
|---------------------------|
|---------------------------| Use the Delay on the 9
|---99-99-99-7--99-99-99----|                      7's
|---77-77-77-5--77-77-77-7--|
 ------------------------5--|

Guitar plays a HEAvILy muted 9
                             7 till 1:13

Then..here is the main Riff in the Song
 -----------------------------------------|
|-----------------------------------------|
|-----------------------------------------|
|---9---9---7---9---7--9---9---7---9------|
|---7-8-7-8-5-8-7-8-5--7-8-7-8-5-8-7-8-7--|
 -----6---6---6---6------6---6---6---6-5--|

The lead that plays over the main Riff
 ----------------------------------------------------------------|
|--------1O-11-12-11-12----------------1O-11-12-11-12------1O~---|
|---9-12----------------9-12------9-12----------------9-12-------|
|----------------------------12~---------------------------------|
|----------------------------------------------------------------|
 ----------------------------------------------------------------|

Lead at 2:31
 ------18----18----18----18-22~----18----18----18----18-17~----|
|---17----17----17----17--------17----17----17----17-----------|
|--------------------------------------------------------------|
|--------------------------------------------------------------|
|--------------------------------------------------------------|
 --------------------------------------------------------------|
Tap to rate this tab
# A B C D E F G H I J K L M N O P Q R S T U V W X Y Z