Song name
# A B C D E F G H I J K L M N O P Q R S T U V W X Y Z

Gwar - We Kill Everything tab

This is the epic song from what people say is GWAR's worst album, We 
Kill Everything. I personally like it, and this song is a favorite of
mine...


All strings tuned half-step down.


INTRO
|-------------------------------------------------------------------------|
|------4------------5--------------------4------------5-------------------|
|------4----4-------4--------------------4----4-------4-------------------|
|--2~--4----4---4-4-4-44-4/5-5-5-x-4-2~--4----4---4-4-4-44-4/5-x-x-4------|
|--2~--2--2-2-0-4-4-4-44-4/5-5-5-x-4-2~--2--2-2-0-4-4-4-44-4/5-x-x-4------|
|--0~-----------2-2-2-22-2/3-3-3-x-2-0~-----------2-2-2-22-2/3-x-x-2/3~~--|
PM        .   .                             .   .       ..

|-------------------------------------------------------------------------|
|-----4------------5-------------------4------------5----4h5-5-0----------|
|-----4----4-------4-------------------4----4-------4------------2-0------|
|--2~-4----4---4-4-4-44-4/5-5-5-x-4-2~-4----4---4-4-4-44-------------2-0--|
|--2~-2--2-2-0-4-4-4-44-4/5-5-5-x-4-2~-2--2-2-0-4-4-4-44------------------|
|--0~----------2-2-2-22-2/3-3-3-x-2-0~----------2-2-2-22------------------|
PM       .   .       ..                   .   .       ..


VERSE (PART I) (x2)
|-------------------------------------------------------------------------|
|------4------------5--------------------4------------5-------------------|
|------4----4-------4--------------------4----4-------4-------------------|
|--2~--4----4---4-4-4-44-4/5-5-5-x-4-2~--4----4---4-4-4-44-4/5-x-x-4------|
|--2~--2--2-2-0-4-4-4-44-4/5-5-5-x-4-2~--2--2-2-0-4-4-4-44-4/5-x-x-4------|
|--0~-----------2-2-2-22-2/3-3-3-x-2-0~-----------2-2-2-22-2/3-x-x-2/3~~--|
PM        .   .                             .   .       ..


VERSE (PART II) (First Time)
|---------------------------------------------------------------------|
|---------------------------------------------------------------------|
|--------5-5-----------------------------5-5--------------------------|
|--2~-2~-5-5-4~-4-4-44-4/5-5-5-5-4-2~-2~-5-5-4~-4-4-44-4/5-x-x-4------|
|--2~-2~-3-3-4~-4-4-44-4/5-5-5-5-4-2~-2~-3-3-4~-4-4-44-4/5-x-x-4------|
|--0~-0~-----2~-2-2-22-2/3-3-3-3-2-0~-0~-----2~-2-2-22-2/3-x-x-2/3~~--|

|------------------------------------------------|
|------------------------------------------------|
|--------5-5-----------------------------5-5-----|
|--2~-2~-5-5-4~-4-4-44-4/5-5-5-5-4-2~-2~-5-5-4~--|
|--2~-2~-3-3-4~-4-4-44-4/5-5-5-5-4-2~-2~-3-3-4~--|
|--0~-0~-----2~-2-2-22-2/3-3-3-3-2-0~-0~-----2~--|


Repeat    VERSE (PART I)


VERSE (PART II) (Second Time)
|---------------------------------------------------------------------|
|---------------------------------------------------------------------|
|--------5-5-----------------------------5-5--------------------------|
|--2~-2~-5-5-4~-4-4-44-4/5-5-5-5-4-2~-2~-5-5-4~-4-4-44-4/5-x-x-4------|
|--2~-2~-3-3-4~-4-4-44-4/5-5-5-5-4-2~-2~-3-3-4~-4-4-44-4/5-x-x-4------|
|--0~-0~-----2~-2-2-22-2/3-3-3-3-2-0~-0~-----2~-2-2-22-2/3-x-x-2/3~~--| x2


PRE-CHORUS
|--------------------------------------------------------------|
|--------------------------------------------------------------|
|-------8\7-------8-8-8--7-7-7-------8\7-------8--7--10-10-10--|
|-------x\x-------x-x-x--x-x-x-------x\x-------x--x---x--x--x--|
|-------6\5-------6-6-6--5-5-5-------6\5-------6--5---8--8--8--|
|--0-0------0-0-0---------------0-0------0-0-0-----------------| x4


CHORUS
|---------------------------------------------------------|
|---------------------------------------------------------|
|------10---9-9--------------------10---9-9---------------|
|--7---10---9-9--10--10/12\10--7---10---9-9--10--10\9/10--|
|--7----8---7-7--10--10/12\10--7----8---7-7--10--10\9/10--|
|--5--------------8---8/10\-8--5--------------8---8\7/-8--|

|-----------------------------------------------|
|-----------------------------------------------|
|------10---9-9--------------------10-10---9~~--|
|--7---10---9-9--10--10/12\10--7---10-10---9~~--|
|--7----8---7-7--10--10/12\10--7----8--8---7~~--|
|--5--------------8---8/10\-8--5----------------|


(No Guitar During The Next Verse)


Repeat    VERSE (PART II)
          PRE-CHORUS
          CHORUS


SOLO
|Rhythm
|------------------------------------------------------------------|
|------------------------------------------------------------------|
|--------10--10--9--9--------------------10--10--9--9--------------|
|--7--7--10--10--9--9-10--10/12\10-7--7--10--10--9--9-10--10\9/10--|
|--7--7---8---8--7--7-10--10/12\10-7--7---8---8--7--7-10--10\9/10--|
|--5--5----------------8---8/10\-8-5--5----------------8---8\7/-8--| x4
|
|Lead
|----------------------------------------------10-12~--|
|-------10-12-13~--12-13-15~--13h15p13-12~--13---------|
|--9-10------------------------------------------------|
|------------------------------------------------------|
|------------------------------------------------------|
|------------------------------------------------------|

|--12h13p12~--12h13p12---------------------------------------|
|----------------------15-13h15p13--13-12~--12h13p12\10-9~~--|
|------------------------------------------------------------|
|------------------------------------------------------------|
|------------------------------------------------------------|
|------------------------------------------------------------|

|---------------------------------------------------------|
|--9-10~--10-13-12-10-10h11p10-10-------------------------|
|---------------------------------10-9--------------------|
|--------------------------------------10-9-10-9-10/12~~--|
|---------------------------------------------------------|
|---------------------------------------------------------|
                               ^^^^^^^^^^^^
                        (Not sure about this part)

|-------------------------------|
|-------------------------------|
|--------b8~--b8~--b8~----------|
|--12-10----------------10\9~~--|
|-------------------------------|
|-------------------------------|


OUTRO (Play Until Fadeout)
|------------------------------------------------------------------|
|------------------------------------------------------------------|
|--------10--10--9--9--------------------10--10--9--9--------------|
|--7--7--10--10--9--9-10--10/12\10-7--7--10--10--9--9-10--10\9/10--|
|--7--7---8---8--7--7-10--10/12\10-7--7---8---8--7--7-10--10\9/10--|
|--5--5----------------8---8/10\-8-5--5----------------8---8\7/-8--|



Legend
========
PM   | Palm Muting
~    | Hold Note/Vibrato
x    | Mute Note
/    | Slide Up
\    | Slide Down
h    | Hammer-On
p    | Pull-Off
b    | Bend Note



That's it. The completed tab for "We Kill Everything". As usual, 
I tabbed the solo on the spot, sitting here at my computer. It
sounds good to me.
Feedback is welcomed.

-- DH
===================================================================
Tap to rate this tab
 
# A B C D E F G H I J K L M N O P Q R S T U V W X Y Z