Song name
# A B C D E F G H I J K L M N O P Q R S T U V W X Y Z

Gwar - Salaminizer tab

Greetings fellow human slaves.Here's my first tab. Its as close as I can get 
without special software. Here is SALAMINIZER by GWAR. The masters will
probably torture me for revealing their secrets, but its not that bad I guess.
Besides the parts I lose usually grow back. Have fun.

P.S. Tuning is standerd but down a half step.Moderatly fast tempo.

Intro

E|------------------------------------------------------------------------|
B|------------------------------------------------------------------------|
G|------------------------------------------------------------------------|
D|-----2---3-----2-----2-------2---3-----2-----2--------2---3-----2-----2-|
A|-1-1---1---1-1---1-1---1-0-1---1---1-1---1-1---1-0-1----1---1-1---1-1---|
E|------------------------------------------------------------------------|

E|------------------------------------------------------------------------|
B|------------------------------------------------------------------------|
G|------------------------------------------------------------------------|
D|-------2-3-2---2-3-2----2-3-2---2-----------2---3---2-----2-----2-------|
A|-0-1-4-------3-------1--------1----0-1-0-1----1---1---1-1---1-1---0-1-0-|
E|------------------------------------------------------------------------|

E|-----------------------------------------------------------|
B|-----------------------------------------------------------|
G|-----------------------------------------------------------|
D|---2---3---2---------2-3-2---2-3-2-----2-----2-----2-------|
A|-------------0-1-1-4-------3---------1---1-1---0-1---------|
E|-3---3---3-------------------------------------------------|


Verse riff

E|----------------------------------------------------------------|
B|----------------------------------------------------------------|
G|---9-10--9-----------6-7--6-------------------------------------|
D|-8-----8-8---7-8-7-5----5-5---------2-3-2---2-3-2---2-3-2---2---|
A|------------------------------0-1-4-------3-------1-------1---0-|
E|----------------------------------------------------------------|


chorus riff
          play this three times.     then this once.
E|---------------------------------|---------------------------|
B|---------------------------------|---------------------------|
G|-6-6-6--6-66---------------------|-6-6-6--6-66--6-6-6--6-66--|
D|-6-6-6--6-66-----2-2-----2-----2-|-6-6-6--6-66--6-6-6--6-66--|
A|-4-4-4--4-44---1-----0-1---0-1---|-4-4-4--4-44--4-4-4--4-44--|
E|---------------------------------|---------------------------|


riff III
  I                            II            III
E|---------------------------|--------------|--------------|
B|---------------------------|--------------|--------------|
G|---------------------------|--------------|--------------|
D|-2-----5-----7-----7---8-8-|-2-----5-7-8--|-2-----5-7-2--|
A|-2-----5-----7-----7---8-8-|-2-----5-7-8--|-2-----5-7-2--|
E|-0-0-0-3-0-0-5-0-0-5-0-6-6-|-0-0-0-3-5-6--|-0-0-0-3-5-0--|
  Riff III is played I,II,I,III twice through and on to riff IV


riff IV

     Play this part three times   then this part once
E|------------------------------|--------------------------|
B|------------------------------|--------------------------|
G|-6-6-6--6-66------------------|-6-6-6--6-66--6-6-6--6-66-|
D|-6-6-6--6-66--------------221-|-6-6-6--6-66--6-6-6--6-66-|
A|-4-4-4--4-44--------444333----|-4-4-4--4-44--4-4-4--4-44-|
E|--------------333666----------|--------------------------|


Rythm guitar plays this before second verse.

E|----------------------------------------|
B|----------------------------------------|
G|-------3------------------6-----5----3--|
D|-------3---------5--------6-----5----3--|
A|-0-1-0-1---0-1-0-5----0-1-4---4-3--3-1--|
E|-----------------3--3-------------------|
 
For the rest of the song, play the verse, chorus, riff III.
The song ends with a modified riff IV. 

song ending
  play this three times.         play this one time.
E|------------------------------|---------------------------|
B|------------------------------|---------------------------|
G|-6-6-6--6-66------------------|-6-6-6--6-66--6-6-6--6-66--|
D|-6-6-6--6-66--------------221-|-6-6-6--6-66--6-6-6--6-66--|
A|-4-4-4--4-44--------444333----|-4-4-4--4-44--4-4-4--4-44--|
E|--------------333666----------|---------------------------|

Then this ends it all.
                                (This deli tray is....)
E|------------------------------------------------------------|
B|------------------------------------------------------------|
G|------------------------------------------------6-----------|
D|------------221-------------21-------------221--6-----------|
A|------444333----------444333---------444333-----4-----------|
E|333666----------333666---------333666-----------------------|
Tap to rate this tab
# A B C D E F G H I J K L M N O P Q R S T U V W X Y Z