Song name
# A B C D E F G H I J K L M N O P Q R S T U V W X Y Z

Gwar - Sexecutioner tab

Skumdogminion,here. I got Sexicutioner drunk and in exchange for two toes and a one inch
square of skin off of my left...knee(he mentioned something about a jigsaw puzzle),he
revealed to me....too much.But on a positive note I can now play his theme song.So heres 
Sexicutioner from Gwars' Scumdogs of the universe.


Tuning:Standard\down 1\2 step

Riff I                            Riff II
E|-------------------------|     |------------------|
B|-------------------------|     |------------------|
G|--------------6----------|     |------------------|
D|-------5------4------5---|X 2  |-------54-54-54---|X 4
A|-4-----3-------------3---|     |-4-4-4-32032032---|
E|-2-----------------------|     |-20202------------|


Riff III (on 2nd and 4th reps play.)
E|------------------|    |------|
B|------------------|    |------|
G|------------------|    |------|
D|7-5---7-8---7-5---|X 4 |--4---|
A|5-3-0-5-6-0-5-3---|    |--2---|
E|------------------|    |------|

Riff IV
E|------------------------------------|-------------------------|
B|------------------------------------|-------------------------|
G|5555-7-5555-4-5555-7-5555-4---------|-pickscrape--------------|
D|5555-5-5555-2-5555-5-5555-2--5------|-------------------------|
A|3333---3333---3333---3333----3--4---|-------------------------|
E|--------------------------------2---|-------------------------|

Play Riffs I through IV and After me...

Riff V                (
E|---------------|    |------------------------------------|
B|---------------|    |------------------------------------|
G|-4---45---57---|    |------------------------------------|
D|-4---45---57---|X 4 |-4444444-555555-7555-7555-7555-7555-|X 3
A|-2---23---35---|    |-2222222-333333-5333-5333-5333-5333-|
E|---------------|    |------------------------------------|

E|-----------------------------------------------------------------|
B|-----------------------------------------------------------------|
G|-----------------------------------------------------------------|
D|-4444444-5555555-7555-7555-7555-7555-7555-7555-7555-755--7--7--7-|
A|-2222222-3333333-5333-5333-5333-5333-5333-5333-5333-533--5--5--5-|
E|-----------------------------------------------------------------|


Play Riffs I through IV End.
Tap to rate this tab
 
# A B C D E F G H I J K L M N O P Q R S T U V W X Y Z