Song name
# A B C D E F G H I J K L M N O P Q R S T U V W X Y Z

Gwar - Horror Of Yig tab

Greetings fellow human skum. Skumdogminion here, all healed up and 
ready to tab out somemore GWAR classics. This one is kinda funky. I
think its pretty accurate( allthough I may still have some brain damage
from last time), and there is alot goin on in this song. So, here is 
my take on GWARs' HORROR OF YIG. Sexicutioner, cue the bagpipes if you please.


The tuning is standered but tuned down a half step.
Play very fast.

Intro
This is played all through the intro.
E|----------------------------------|
B|----------------------------------|
G|---------9999------------9999-----| 
D|-----8888----8888----8888----8888-|
A|-7777------------7777-------------|
E|----------------------------------|
        pinch harmonics
 
About one minute and ten seconds into the intro play,
(I usually just make funny noises untill this part)
E|----------------------------------------|
B|----10---------7------------------------|
G|--9----9-8---8---8-7--878787878787878787|
D|----------------------------------------|long slow pickscrape
A|----------------------------------------|untill a minute thirty
E|----------------------------------------|


The fun begins.
Riff 0
E|----------------------------------------------|
B|----------------------------------------------|
G|-9---9--------9---9--------9---9--------9---9-|
D|-9---9--------9---9--------9---9--------9---9-|pickscrape
A|-7---7--------7---7--------7---7--------7---7-|
E|---0---000000---0---000000---0---000000---0---|


Riff I
(this part was difficult to pick out,its not right)
E|--------------------------------------------------------|
B|--------------------------------------------------------|
G|--------------------------------------------------------|
D|--------------------------------------------------------|play twice
A|--------11-10-11-10----------------11-10-11-10----------|
E|-0-0-12-------------0-11-11-0-0-12-------------0-11-11--|


Riff II

E|--------------------------------------------------------|
B|-------------------------------------12-----------------|
G|----------9-----------9-----------------------------9---|
D|--------8-----------8----------9-12---------------8-----|
A|------7-----------7-----------------------------7-------|
E|0-000-------0-000--------0-000-----------0-000----------|


Repeat Riff I and Riff II, Then....


Riff III

E|-15--15-15--15--15-15-15--|----------|-9--9--9--9--9--9--|-----|
B|-12--12-12--12--12-12-12--|----------|-10-10-10-10-10-10-|-----|
G|-12--12-12--12--12-12-12--|-X 4-then-|-9--9--9--9--9--9--|-X 2-|
D|-12--12-12--12--12-12-12--|----------|-7--7--7--7--7--7--|-----|
A|--------------------------|----------|-------------------|-----|
E|--------------------------|----------|-------------------|-----|

E|-15--15-15--15--15-15-15--|-----|
B|-12--12-12--12--12-12-12--|-----|
G|-12--12-12--12--12-12-12--|-X 2-|
D|-12--12-12--12--12-12-12--|-----|another pickscrape
A|--------------------------|-----|
E|--------------------------|-----|

Play Riff I then:

E|---------------|------------|
B|---------------|------------|
G|-----------9---|------------|
D|---------8-----|-Break time.|
A|-------7-------|------------|
E|-0-000---------|------------|


Riff IV

E|-----------|-------------------------------|
B|-----------|-------------------------------|
G|-12-11-7-9-|-Pickscrape again!?------------|
D|-12-11-7-9-|-------------------------------|
A|-10-9--5-7-|-------------------------------|
E|-----------|-------------------------------|


Riff V

E|------------------------------------------------------------|
B|------------------------------------------------------------|
G|-7-9-9--7-9-9--7-9-9----------7-9-9--7-9-9--7-9-9-----------|
D|-7-9-9--7-9-9--7-9-9----------7-9-9--7-9-9--7-9-9-----------|X 2
A|-5-7-7--5-7-7--5-7-7--888888--5-7-7--5-7-7--5-7-7--888888---|
E|----------------------666666-----------------------666666---|


E|------------------------------------------------------------|
B|------------------------------------------------------------|
G|-10-10---10-10---10-10---10-10----9-----------9-------------|
D|-10-10---10-10---10-10---10-10----9-----------9-------------|X 2
A|-8--8----8--8----8--8----8--8-----7-----------7-------------|
E|------000-----000-----000-----000---0-0-0-0-00--0-0-0-0-00--|
Play Riff V twice through and add yet another pickscrape


Riff VI

E|--------------------------------------------|
B|--------------------------------------------|
G|-999--999--999--999-------------------------|
D|-999--999--999--999--887--887--887----------|
A|-777--777--777--777--887--887--887--9-8-5---|
E|---------------------665--665--665--7-6-3---|

E|--------------------------------------------|
B|--------------------------------------------|
G|-999--999--999--999-------------------------|
D|-999--999--999--999--887--887--887----------|
A|-777--777--777--777--887--887--887--9-8-3---|
E|---------------------665--665--665--7-6-1---|

E|--------------------------------------------|
B|--------------------------------------------|
G|-999--999--999--999-------------------------|
D|-999--999--999--999--887--887--887----------|
A|-777--777--777--777--887--887--887----------|
E|---------------------665--665--665--7-6-3---|
                                        
E|------------------------------------------------|
B|------------------------------------------------|
G|-999--999--999--999-----------------------------|
D|-999--999--999--999--887--887--887------------2-|
A|-777--777--777--777--887--887--887--9-8-------2-|
E|---------------------665--665--665--7-6-0-3-2-0-|
(let the last chord of Riff VI ring for 8 beats then on to)


Outro 
E|---------------------------0-----------------|
B|--10--9--8--7--6--5--4--3--0-----------4-----|
G|-9--98-87-76-65-54-43-32-2-1--7--6--5--4-----|
D|---------------------------2--7--6--5--2-----|
A|---------------------------2--5--4--3--2-----|
E|---------------------------0-----------------|
  (yig now is.....impossibly)ring for 4 beats each


E|------------------------------------------------------------|
B|------------------------------------------------------------|
G|-4-5-6-7-8-9-10-11------------------------------------------|
D|-4-5-6-7-8-9-10-11--pickscrape then play Riffs 0 through 2--| End.
A|-2-3-4-5-6-7-8--9-------------------------------------------|
E|------------------------------------------------------------|
Tap to rate this tab
# A B C D E F G H I J K L M N O P Q R S T U V W X Y Z