Song name
# A B C D E F G H I J K L M N O P Q R S T U V W X Y Z

Gwar - Lets Blame The Lightman tab

I'm back!
After a long break of no ASCII tabs, I'm going to return to making them, with the 
occasional Guitar Pro tab here and there. I've been playing through Carnival of Chaos a lot, 
working on the tabs for them. Without further ado...

All strings tuned half-step down.


CHORUS
|Guitar 1
|--------------------------------------------------------------|
|--------------------------------------------------------------|
|--9-9-9-9-9-9-9-9-9-9-9-9-9-9-9\--/9-9-9-9-9\--/9-9-9-9-9-9\--|
|--------------------------------------------------------------|
|--7-7-7-7-7-7-7-7-7-7-7-7-7-7-7\--/7-7-7-7-7\--/7-7-7-7-7-7\--|
|--------------------------------------------------------------|
|
|Guitar 2
|--------------------------------------------------------------|
|--------------------------------------------------------------|
|--9-9-9-9-9-9-9-9-9-9-9-9-9-9-9\--/9~~~~~~~~\--/9-9~~~~~~~~\--|
|--9-9-9-9-9-9-9-9-9-9-9-9-9-9-9\--/9~~~~~~~~\--/9-9~~~~~~~~\--|
|--------------------------------------------------------------|
|--------------------------------------------------------------|

|----------------------------------------------|
|----------------------------------------------|
|--12-12-12-12-12-12-12-12-12-12-12-12-12-14\--|
|----------------------------------------------|
|--10-10-10-10-10-10-10-10-10-10-10-10-10-12\--|
|----------------------------------------------|
|
|----------------------------------------------|
|----------------------------------------------|
|--12-12-12-12-12-12-12-12-12-12-12-12-12-14\--|
|--12-12-12-12-12-12-12-12-12-12-12-12-12-14\--|
|----------------------------------------------|
|----------------------------------------------|

|------------------------------|
|------------------------------|
|--/9-9-9-9-9\--/9-9-9-9-9-9\--|
|------------------------------|
|--/7-7-7-7-7\--/7-7-7-7-7-7\--|
|------------------------------|
|
|------------------------------|
|------------------------------|
|--/9~~~~~~~~\--/9-9~~~~~~~~\--|
|--/9~~~~~~~~\--/9-9~~~~~~~~\--|
|------------------------------|
|------------------------------|


VERSE ("We don't talk...")
|------------------0--|
|------------------0--|
|------------------0--|
|-----------12-11-----|
|--9-9-12-9-----------|
|---------------------| x4


VERSE BREAK
|--7-5-4-0-9-0-4-0-7-5-4-0-9-0-4-5--|
|-----------------------------------|
|-----------------------------------|
|-----------------------------------|
|-----------------------------------|
|-----------------------------------| x2


Repeat        CHORUS
              VERSE (Play riff twice)
              VERSE BREAK
              VERSE (Play riff eight times)


TRANSITION
|------------------|
|------------------|
|--9-9-X-----------|
|--9-9-X-8-8-X-10--|  ("HAY HAY HAY")
|--7-7-X-8-8-X-10--|
|--------6-6-X--8--|


TRANSITION II
|-------------------|
|-------------------|
|-------------------|
|-------------------|
|------------4------|
|--2-2-5-2-2---2-2--| x4


Repeat        VERSE (Play riff four times)


TRANSITION III
|-----------------------------|
|-----------------------------|
|--9-9-X---------------12-12--|
|--9-9-X-8-8-X-10-10-X-12-12--|
|--7-7-X-8-8-X-10-10-X-10-10--|
|--------6-6-X--8--8-X--------|


Repeat        TRANSITION II (Play riff twice)
              TRANSITION III
              TRANSITION II (Play riff twice)
              TRANSITION III
              CHORUS
              VERSE
              VERSE BREAK
              CHORUS


BLAME BLAME BLAME
|-----------------------------|
|-----------------------------|
|--9--9--9--9--9--9--9\7-7-7--|
|-----------------------------|
|--7--7--7--7--7--7--7\5-5-5--|
|-----------------------------|
|
|-----------------------------|
|-----------------------------|
|--9~-9~-9~-9~-9~-9~-9\7-7-7--|
|--9~-9~-9~-9~-9~-9~-9\7-7-7--|
|-----------------------------|
|-----------------------------|

|--------------------------------|
|--------------------------------|
|--9--9--9--9--9--9--9/11-11/12--|
|--------------------------------|
|--7--7--7--7--7--7--7/-9--9/10--|
|--------------------------------|
|
|--------------------------------|
|--------------------------------|
|--9~-9~-9~-9~-9~-9~-9/11-11/12--|
|--9~-9~-9~-9~-9~-9~-9/11-11/12--|
|--------------------------------|
|--------------------------------|

|---------------------------------------|
|---------------------------------------|
|--12--12--12--12--12--12--12/14-14/16--|
|---------------------------------------|
|--10--10--10--10--10--10--10/12-12/14--|
|---------------------------------------|
|
|---------------------------------------|
|---------------------------------------|
|--12~-12~-12~-12~-12~-12~-12/14-14/16--|
|--12~-12~-12~-12~-12~-12~-12/14-14/16--|
|---------------------------------------|
|---------------------------------------|

|-----------------------------------|
|-----------------------------------|
|--16--16--16--16--16--16--16--16\--|
|-----------------------------------|
|--14--14--14--14--14--14--14--14\--|
|-----------------------------------|
|
|-----------------------------------|
|-----------------------------------|
|--16~-16~-16~-16~-16~-16~-16~-16\--|
|--16~-16~-16~-16~-16~-16~-16~-16\--|
|-----------------------------------|
|-----------------------------------|


Repeat        TRANSITION III


INTERLUDE I
|-------------------------------------------|
|-------------------------------------------|
|-------------------------------------------|
|--9-9-9-9---------------------12-12-12-12--|
|--7-7-7-7-8-8-8-8-10-10-10-10-10-10-10-10--|
|----------6-6-6-6--8--8--8--8--------------|
PM . . . . . . . .  .  .  .  .  .  .  .  .

|-----------------------------------|
|-----------------------------------|
|-----------------------------------|
|--------------------------5-5-5-5--|
|--7-7-7-7-8-8-8-8-3-3-3-3-3-3-3-3--|
|--5-5-5-5-6-6-6-6-1-1-1-1----------|
PM . . . . . . . . . . . . . . . .

|-------------------------------------------|
|-------------------------------------------|
|-------------------------------------------|
|--9-9-9-9---------------------12-12-12-12--|
|--7-7-7-7-8-8-8-8-10-10-10-10-10-10-10-10--|
|----------6-6-6-6--8--8--8--8--------------|
PM . . . . . . . .  .  .  .  .  .  .  .  .

|-----------------------------------|
|-----------------------------------|
|-----------------------------------|
|----------5-5-5-5------------------|
|--7-7-7-7-3-3-3-3-3-3-3-3-5-5-5-5--|
|--5-5-5-5---------1-1-1-1-3-3-3-3--|
PM . . . . . . . . . . . . . . . .


INTERLUDE II
|-----------------------------|
|-----------------------------|
|--9-9-X---------------12-12--|
|--9-9-X-8-8-X-10-10-X-12-12--|
|--7-7-X-8-8-X-10-10-X-10-10--|
|--------6-6-X--8--8-X--------|

|-----------------------------------|
|-----------------------------------|
|-----------------------------------|
|--------------------------5-5-5-5--|
|--7-7-7-7-8-8-8-8-3-3-3-3-3-3-3-3--|
|--5-5-5-5-6-6-6-6-1-1-1-1----------|
PM . . . . . . . . . . . . . . . .

|-----------------------------|
|-----------------------------|
|--9-9-X---------------12-12--|
|--9-9-X-8-8-X-10-10-X-12-12--|
|--7-7-X-8-8-X-10-10-X-10-10--|
|--------6-6-X--8--8-X--------|

|-----------------------------------|
|-----------------------------------|
|-----------------------------------|
|----------5-5-5-5------------------|
|--7-7-7-7-3-3-3-3-3-3-3-3-5-5-5-5--|
|--5-5-5-5---------1-1-1-1-3-3-3-3--|
PM . . . . . . . . . . . . . . . .


OUTRO (Played alongside the VERSE BREAK)
|-------------------------------------------------------|
|-------------------------------------------------------|
|--9-9-X---------------12-12-X-------------------5-5-X--|
|--9-9-X-8-8-X-10-10-X-12-12-X-7-7-X-8-8-X-3-3-X-5-5-X--|
|--7-7-X-8-8-X-10-10-X-10-10-X-7-7-X-8-8-X-3-3-X-3-3-X--|
|--------6-6-X--8--8-X---------5-5-X-6-6-X-1-1-X--------|

|-------------------------------------------------------|
|-------------------------------------------------------|
|--9-9-X---------------12-12-X-------5-5-X--------------|
|--9-9-X-8-8-X-10-10-X-12-12-X-7-7-X-5-5-X-3-3-X-5-5-X--|
|--7-7-X-8-8-X-10-10-X-10-10-X-7-7-X-3-3-X-3-3-X-5-5-X--|
|--------6-6-X--8--8-X---------5-5-X-------1-1-X-3-3-X--|

|-------------------------------------------------------|
|-------------------------------------------------------|
|--9-9-X---------------12-12-X-------------------5-5-X--|
|--9-9-X-8-8-X-10-10-X-12-12-X-7-7-X-8-8-X-3-3-X-5-5-X--|
|--7-7-X-8-8-X-10-10-X-10-10-X-7-7-X-8-8-X-3-3-X-3-3-X--|
|--------6-6-X--8--8-X---------5-5-X-6-6-X-1-1-X--------|

|-----------------------------------------------------|
|-----------------------------------------------------|
|--9-9-X---------------12-12-X-------5-5-X------------|
|--9-9-X-8-8-X-10-10-X-12-12-X-7-7-X-5-5-X-3-3-3---5--|
|--7-7-X-8-8-X-10-10-X-10-10-X-7-7-X-3-3-X-3-3-3---5--|
|--------6-6-X--8--8-X---------5-5-X-------1-1-1-0-3--|



Legend
========
PM   | Palm Muting
~    | Hold Note/Vibrato
X    | Mute Note
/    | Slide Up
\    | Slide Down


Feedback is welcomed.

-- DH
========================================================
Tap to rate this tab
# A B C D E F G H I J K L M N O P Q R S T U V W X Y Z