Song name
# A B C D E F G H I J K L M N O P Q R S T U V W X Y Z

Gwar - Apes Of Wrath tab

Apes of Wrath - GWAR

. - Palm Mute

Intro/chorus riff

eb|-------------------------------------------------|
Bb|-------------------------------------------------|
Gb|-------------------------------------------------|
Db|--5-------------------------5--------------------|
Ab|--3-5-5---------3-5-6-5-3---3-5-5--------3-5-6---|
Eb|----3-3--3-333--1-3-4-3-1-----3-3-3-333--1-3-4---|
            . ...                    . ...

verse riff 1

eb|---------------------------------------|
Bb|---------------------------------------|
Gb|---------------------------------------|
Db|--5--------------------5---------------|
Ab|--3-5-5----3-5-6-5-3---3-5-5---3-5-6---|
Eb|----3-3----1-3-4-3-1-----3-3---1-3-4---|

verse riff 2

eb|------------------------------------------------------------|
Bb|------------------------------------------------------------|
Gb|------------------------------------------------------------|
Db|------------------------------------------------------------|
Ab|--2--------------2--------------2-------------5-5-5--3-3-3--|
Eb|--0--0-0-0-0000--0--0-0-0-0000--0-0-0-0-0000--3-3-3--1-1-1--|


Outro riff


eb|-------------------------------------------------|
Bb|-------------------------------------------------|
Gb|-------------------------------------------------|
Db|-10- about 16 of this chord----------------------|
Ab|-8-----------------------------------------------|
Eb|-------------------------------------------------|


eb|--------------------------------------------------|
Bb|--------------------------------------------------|
Gb|----9---------9---------9/10-----9----------------|
Db|---------9---------9------------------9-----10----|
Ab|-77---77---77---77---77-------77---77---77--8---8-| of this chord
Eb|--------------------------------------------------|
Tap to rate this tab
 
# A B C D E F G H I J K L M N O P Q R S T U V W X Y Z