Song name
# A B C D E F G H I J K L M N O P Q R S T U V W X Y Z

Gwar - Bring Back The Bombs tab

Band - GWAR
Song - Bring Back the Bombs
Album - War Party

Tuning - Drop C [C G C F A D]

. = palm mute
h = hammer on
p = pull off

Intro/Verse 1  [x4]
||-------------------------------------------------------|
||-------------------------------------------------------|
||-------------------------------------------------------|
||-------------------------------------------------------|
||-------8h11p8-7h10p7-------8h11p8-7h10p7-8h11p8-7h10p7-|
||-0-0-0---------------0-0-0-----------------------------|
   . . .               . . .                    
|-----------------------------------------||
|-----------------------------------------||
|-----------------------------------------||
|-----------------------------------------||
|-------8h11p8-7h10p7-------7-7-------8-8-||
|-0-0-0---------------5-5-5-----5-5-5-----||
  . . .               . . .     . . . 
   [x2]
||-------------------------------------------------------------------|
||-------------------------------------------------------------------|
||-------------------------------------------------------------------|
||-------11h14p11-10h13p10-------11h14p11-10h13p10-11h14p11-10h13p10-|
||-------------------------------------------------------------------|
||-0-0-0-------------------0-0-0-------------------------------------|
   . . .                   . . .
|-------------------------------------------------||
|-------------------------------------------------||
|-------------------------------------------------||
|-------11h14p11-10h13p10-------10-10-------11-11-||
|-------------------------------------------------||
|-0-0-0-------------------5-5-5-------5-5-5-------||
  . . .                   . . .       . . .
Chorus
||------------------------------------------||
||------------------------------------------||
||-10-10-----11-10-10-----------------------||
||-10-10-9-9-11-10-10----------------8----8-||
||-8--8--9-9-9--8--8--8-8-8-11-11-11---11---||
||-------9-9--------------------------------||
                      . . . .. .. .. . .. .
Tap to rate this tab
 
# A B C D E F G H I J K L M N O P Q R S T U V W X Y Z