Song name
# A B C D E F G H I J K L M N O P Q R S T U V W X Y Z

Gwar - Bonus Plan tab

-------------------------------------------------------------------------------
			     The Bonus Plan - GWAR
-------------------------------------------------------------------------------
Tabbed by: Rockstar_imn
Email: RRockstar90c@aol.com

Tuning: EADGBe

| /  slide up
===============================================================================

Intro
e|----------------------------------------------------|
B|----------------------------------------------------|
G|----------------------------------------------------|
D|----------------------------5-----7-5---5-----7-5---|
A|---3-----5-3---3-----5-3--7---5-7-----7---5-7-------|
E|-5---3-5-----5---3-5--------------------------------|

e|---------------------------------------------------------------------------|
B|---------------------------------------------------------------------------|
G|---------------------------------------------------------------------------|
D|-2--2-2-2-2-2-2-2-2-2-2-2-2-----------------2--2-2-2-2-2-2-2-2-2-2-2-2-----|
A|-0--0-0-0-0-0-0-0-0-0-0-0-0-3--3-3--5--5-5--0--0-0-0-0-0-0-0-0-0-0-0-0-----|
E|----------------------------1--1-1--3--3-3---------------------------------|

e|---------------------------------------------------------------------------|
B|---------------------------------------------------------------------------|
G|---------------------------------------------------------------------------|
D|-5--5-5----------2--2-2-2-2-2-2-2-2-2-2-2-2--------------------------------|
A|-3--3-3--0-3-5---0--0-0-0-0-0-0-0-0-0-0-0-0-3--3-3--5--5-5-----------------|
E|---------------3----------------------------1--1-1--3--3-3-----------------|

e|---------------------------------------------------------------------------|
B|---------------------------------------------------------------------------|
G|---------------------------------------------------------------------------|
D|-2--2-2-2-2-2-2-2-2-2-2-2-2--5--5-5----------2-----------------------------|
A|-0--0-0-0-0-0-0-0-0-0-0-0-0--3--3-3--0-3-5---0-----------------------------|
E|-------------------------------------------3-------------------------------|

e|---------------------------------------------------------------------------|
B|---------------------------------------------------------------------------|
G|---------------------------------------------------------------------------|
D|--------------------------------2------------------------------------------|
A|-5/7-----7-----5/7-----3-3-5--3-0-----5/7-----7-----5/7-----3--5--3--------|
E|-3/5-----5-----3/5--------------------3/5-----5-----3/5--------------------|

e|---------------------------------------------------------------------------|
B|---------------------------------------------------------------------------|
G|---------------------------------------------------------------------------|
D|-2--2-2-2-2-2-2-2-2-2-2-2-2-----------------2--2-2-2-2-2-2-2-2-2-2-2-2-----|
A|-0--0-0-0-0-0-0-0-0-0-0-0-0-3--3-3--5--5-5--0--0-0-0-0-0-0-0-0-0-0-0-0-----|
E|----------------------------1--1-1--3--3-3---------------------------------|

e|---------------------------------------------------------------------------|
B|---------------------------------------------------------------------------|
G|---------------------------------------------------------------------------|
D|-5--5-5----------2--2-2-2-2-2-2-2-2-2-2-2-2--------------------------------|
A|-3--3-3--0-3-5---0--0-0-0-0-0-0-0-0-0-0-0-0-3--3-3--5--5-5-----------------|
E|---------------3----------------------------1--1-1--3--3-3-----------------|

e|---------------------------------------------------------------------------|
B|---------------------------------------------------------------------------|
G|---------------------------------------------------------------------------|
D|-2--2-2-2-2-2-2-2-2-2-2-2-2--5--5-5----------2-----------------------------|
A|-0--0-0-0-0-0-0-0-0-0-0-0-0--3--3-3--0-3-5---0-----------------------------|
E|-------------------------------------------3-------------------------------|

e|---------------------------------------------------------------------------|
B|---------------------------------------------------------------------------|
G|---------------------------------------------------------------------------|
D|--------------------------------2------------------------------------------|
A|-5/7-----7-----5/7-----3-3-5--3-0-----5/7-----7-----5/7-----3--5--3--------|
E|-3/5-----5-----3/5--------------------3/5-----5-----3/5--------------------|

e|-----------------------------------|
B|-----------------------------------|
G|-----------------------------------|
D|-----------------2--2-2-2----------|
A|-3--3-3--5--5-5--0--0-0-0-0-5-3----|
E|-1--1-1--3--3-3-----------------3--| 4x

e|------------------------------------------------|
B|------------------------------------------------|
G|------------------------------------------------|
D|----------------------------5-----7-5---7-------|
A|---3-----5-3---3-----5-3--7---5-7-----7---5-7---|
E|-5---3-5-----5---3-5----------------------------|
Tap to rate this tab
# A B C D E F G H I J K L M N O P Q R S T U V W X Y Z