Song name
# A B C D E F G H I J K L M N O P Q R S T U V W X Y Z

Gwar - Destroyed tab

This is my 1st tab on here and it took my a LONG time to make, this song kicksas too!
a small short riff before this one but i havent figures it out Yet.

INRTO (guitar 2) fast picking
e -55555-00000-66666-55555-3333--------------------------------------|
b -------------------------------------------------------------------|
g -------------------------------------------------------------------|    x2
d -------------------------------------------------------------------|
a -------------------------------------------------------------------|
E -------------------------------------------------------------------|

(guitar 2)
e --------------------------------------------------------------------|
b --------------------------------------------------------------------|
g --------------------------------------------------------------------|     x2
d --------------------------------------------------------------------|
a -55555--00000--66666--55555--33333----------------------------------|
E -55555--00000--66666--55555--33333----------------------------------|
    *******  ****** ******* ********
    p.m.


VERSE 1 (guitar 1)
e -----------------------------------------------------------------------|
b -----------------------------------------------------------------------|
g -----------------------------------------------------------------------|   x2
d -----------------------------------------------------------------------|
a -7-----2----8--7--5--7-------------------------------------------------|
E -5-----0----6--5--3--5-------------------------------------------------|


(guitar 2) with whammy bar
e ---------------------------------------------------------------|
b ---------------------------------------------------------------|
g ------5~-----0~-----6--5--3--5---------------------------------|  x2
d ---------------------------------------------------------------|
a ---------------------------------------------------------------|
E ---------------------------------------------------------------|

INTRO x2


VERSE x2


CHORUS (both guitars) x1
e --------------------------------------|
b --------------------------------------|
g --------------------------------------|
d --------------------------------------|
a -2-----3-------6---5----3---2---------|
E -0-----1-------4---3----1---0---------|

e ------------------------------------|
b ------------------------------------|
g ------------------------------------|
d ------------------------------------|
a -2-----3------6-5-3---6-5-1---------|
E -0-----1------4-3-1---4-3-1---------|


INTRO x2

VERSE x2

INTRO x2

VERSE x2

CHORUS x2


Theres a couple other riffs that i also havent figured out yet but am working very hard
it. these all sound almost perfect! Please rate,
thanks

\m/ GWAR \m/

Happy Holidays 06

- C.H.
Tap to rate this tab
 
# A B C D E F G H I J K L M N O P Q R S T U V W X Y Z