Guitaretab - guitar tabs
Song name
# A B C D E F G H I J K L M N O P Q R S T U V W X Y Z

Gwar - The Years Without Light tab

Gwar
The Years WIthout Light
Tuned 1/2 step down

This is only the rythm for the song
because I tabbed it out for someone
I'm to lazy to do the solo I might
sometime in the future if any one has
it feel free to post it with this tab
if you think this tab is right. The only
audio of this song I had was from the
YouTube video I tabbed most of it from.
So I can't even tell if it's 100% right.
Good Luck with it.

I figured most of this out thanks to
balsac44 at YouTube.

I am also to lazy to determine how many
times each part is played, you should be
able to figure it out.

Intro
E|-----------|
B|-----------|
G|-----------|
D|7-6---5--4-|
A|5-4---3--2-|
E|-----------|

Verse
E|------------------------|
B|------------------------|
G|------------------------|
D|9-99-9-99-9-76-66666666-|
A|7-77-7-77-7-54-44444444-|
E|------------------------|
    ..   ..      ........
[ Tab from: http://www.guitaretab.com/g/gwar/82996.html ]
E|-----------------------|
B|-----------------------|
G|-----------------------|
D|9-99-9-99-9-54-44------|
A|7-77-7-77-7-32-22-55-4-|
E|------------------33-2-|
    ..   ..      ..

Chorus
E|---------|
B|---------|
G|---------|
D|---------|
A|99999\5/7
E|77777\3/5


Verse 2
E|------------------------|
B|------------------------|
G|------------------------|
D|9-99-9-99-9-76-66666666-|
A|7-77-7-77-7-54-44444444-|
E|------------------------|
    ..   ..      ........

E|-----------------------|
B|-----------------------|
G|-----------------------|
D|9-99-9-99-9-54-44------|
A|7-77-7-77-7-32-22-55-4-|
E|------------------33-2-|
    ..   ..      ..

Chorus
E|---------|
B|---------|
G|---------|
D|---------|
A|99999\5/7
E|77777\3/5

solo
E|-----------------------------------|
B|-----------------------------------|
G|-----------------------------------|
D|-----76------54------76------------|
A|2222-54-2222-32-2222-54-4-4-5-9\\5-|
E|0000----0000----0000----2-2-3-7\\3-|
  ....    ....    ....

Chorus
E|---------|
B|---------|
G|---------|
D|---------|
A|99999\5/7
E|77777\3/5

Ending
E|--|
B|--|
G|--|
D|--|
A|9*|
E|7*|
Related for The Years Without Light tab
Advertisement will be closed in 10 seconds