Song name
# A B C D E F G H I J K L M N O P Q R S T U V W X Y Z

Gwar - Bring Back The Bomb tab

Help us improve GuitareTab! Take a short survey!
Artist: GWAR
Song: Bring Back the Bomb



Intro and Verse Riff
--------------------------------------------------------|
--------------------------------------------------------|
--------------------------------------------------------|
--------------------------------------------------------|
-------7h10p7-6h9p6-------7h10p7-6h9p6-7h10p7-6h9p6-----|
-0-0-0---------------0-0-0------------------------------|

                      Intro Ending               Verse Ending
---------------------|--------------------------|--------------------------|
---------------------|--------------------------|--------------------------|
---------------------|--------------------------|--------------------------|
---------------------|--------------------------|--------7-7-7-------8-8-8-|
-------7h10p7-6h9p6--|------7-7-7-------8-8-8---|--------------------------|
-0-0-0---------------|5-5-5-------5-5-5---------|--5-5-5-------5-5-5-------|



Lead Guitar
--------------------------------------------------------|
--------------------------------------------------------|
--------------------------------------------------------|
-11~~~--------------------------------------------------|
--------------------------------------------------------|
--------------------------------------------------------|


Chorus
-------------------------------|
-------------------------------|
------------------5------------|
-----------3-3-3--3------------|
--2-2-2-2--1-1-1------2-2-2-2--|
--0-0-0-0-------------0-0-0-0--|

Fast Picked
--------------------------------------------------------|
--------------------------------------------------------|
--------------------------------------------------------|
--------------------------------------------------------|
--7-7-7-7-7-7-7-7-7-------------------------------------|
--------------------------------------------------------|
  

-------------------------------|
-------------------------------|
------------------5------------|
-----------3-3-3--3------------|
--2-2-2-2--1-1-1------2-2-2-2--|
--0-0-0-0-------------0-0-0-0--|


--------------------------------------------------------|
--------------------------------------------------------|
--------------------------------------------------------|
-----------------7----7--10~~Vibrato--------------------|
--7-7-7-10-10-10---10-----------------------------------|
--------------------------------------------------------|
  

-------------------------------|
-------------------------------|
------------------5------------|
-----------3-3-3--3------------|
--2-2-2-2--1-1-1------2-2-2-2--|
--0-0-0-0-------------0-0-0-0--|


--------------------------------------------------------|
--------------------------------------------------------|
--------------------------------------------------------|
--------------------------------------------------------|
--7-7-7-7-7-7-7-7-7-7-----------------------------------|
--------------------------------------------------------|
 

-------------------------------|
-------------------------------|
------------------5------------|
-----------3-3-3--3------------|
--2-2-2-2--1-1-1------2-2-2-2--|
--0-0-0-0-------------0-0-0-0--|

 
--------------------------------------------------------|
--------------------------------------------------------|
--------------------------------------------------------|
-----------------7----7--10~~Vibrato--------------------|
--7-7-7-10-10-10---10-----------------------------------|
--------------------------------------------------------|

--------------------------------------------------------|
--------------------------------------------------------|
--------------------------------------------------------|
-----------------7----7--10~~Vibrato--------------------|
--7-7-7-10-10-10---10-----------------------------------|
--------------------------------------------------------|
Verse 3

Drums Follow the Guitar Beat
-------------------------------------------------------------------|
-------------------------------------------------------------------|
-------------------------------------------------------------------|
--8---8-------8---8------8---8-------9---9-------9---9---9---------|
--7---7-------7---7------7---7-------7---7-------7---7---7---------|
-------------------------------------------------------------------|

                                                         Repeat 3x's
-------------------------------------------------------------------|
------------------------------------------------------------------o|
-------------------------------------------------------------------|
--8---8-------8---8------8---8-------9---9-------9---9---9---------|
--7---7-------7---7------7---7-------7---7-------7---7---7--------o|
--------0-0-0-------0-0-0-------0-0-0-------0-0-0------------------|
                                              
                                                
Lead Comes In With This
-------------------------------------------------------------------|
-------------------------------------------------------------------|
--9----------9-----------9-----------------------------------------|
----8----------8-----------8--------9---9--------9---9---9---------|
------7----------7-----------7------7---7--------7---7---7---------|
-------------------------------------------------------------------|


Verse 4
-------------------------------------------------------------------|
-------------------------------------------------------------------|
-------------------------------------------------------------------|
-------------------------------------------------------------------|
-2-2-4-2-5-2-2-4-2-2-4-2-5-2-5-7-2-2-4-2-5-2-2-2-2-4-7-5-7--5------|
-0-0-6-0-3-0-0-6-0-0-6-0-3-0-3h5-0-0-6-0-3-0-0-0-0-6-5-3-5--3------|
Related for Bring Back The Bomb tab