Song name
# A B C D E F G H I J K L M N O P Q R S T U V W X Y Z

Gwen Stefani - Buble Pop Electric tab

BUBBLE POP ELECTRIC

Album- LOVE.ANGEL.MUSIC.BABY.

TABBED BY Nodoubter90


intro

E--------------------------------------|
B--------------------------------------|
G-------------------6-6-6-6------------|
D---7-7-7-7-6-6-6-6---------4-4-4-4----|
A------------------4-4-4-4-------------|
E--5-5-5-5-4-4-4-4---------2-2-2-2-----|


verse

E--------------------------------|
B--------------------------------|
G--------------------------------|
D--------------------------------|
A----------4-4-------------------|
E--5-5-4-4-----2-2---------------|


Im not sure how many times to play each note but you should be able to figure it out

chorus


E--------------------------------------|
B--------------------------------------|
G--------------------6-6-6-6-----------|
D--7-7-7-7--6-6-6-6--4-4-4-4--4-4-4-4--|
A--7-7-7-7--6-6-6-6--4-4-4-4--4-4-4-4--|
E--5-5-5-5--4-4-4-4-----------2-2-2-2--|

thats preety much it

I LOVE GWEN!!!
Tap to rate this tab
 
# A B C D E F G H I J K L M N O P Q R S T U V W X Y Z