Song name
# A B C D E F G H I J K L M N O P Q R S T U V W X Y Z

Gwen Stefani - Hollaback Girl tab

Personally i Though it was like this

E---------------------------------------------------|
B---7----7----7----7--------------------------------|
G--8----8----8----8---------------------------------|
D-9--9p8--8h9--9p8----------------------------------|
A---------------------------------------------------|
E---------------------------------------------------|

Though This way works too

E---2----2----2----2-------------------------------|
B--4----4----4----4--------------------------------|
G-4--4p3--3h4--4p3---------------------------------|
D--------------------------------------------------|
A--------------------------------------------------|
E--------------------------------------------------|

Though it just depends on prefrence.
Tap to rate this tab
# A B C D E F G H I J K L M N O P Q R S T U V W X Y Z