Guitaretab - guitar tabs
Song name
# A B C D E F G H I J K L M N O P Q R S T U V W X Y Z

Gwen Stefani - What You Waiting For tab

Hey i read the other tabs, but this one seemed more to me like the real version...

verse 1:

E --------------------------------------------------    ---------------------|
B --------------------------------------------------    ---------------------|
G -------------------------------------------------- 3 ---------------------|
D --------------------------------------------------    ---------------------|
A --------------------------------0-1-1-1-1-0------1    ---------------0-----|
E -3-3-3-3-3-3-3-3-3-3-3-3-3-3-3-3-----------1-1-1-1    -3-3-3-3-3-3-3-3-----|

you can play this part if you use a distortion pedal, but if you want a more 
version", you can also try this:

E ------------------------------------------------------    ------------------|
B ------------------------------------------------------    ------------------|
G -----------------------------------------------------3 3 ------------------|
D -5-5-5-5-5-5-5-5-5-5-5-5-5-5-5-5-7-8-8-8-8-7-3-3-3-3-3    5-5-5-5-5-5-5-5-7-|
A -5-5-5-5-5-5-5-5-5-5-5-5-5-5-5-5-7-8-8-8-8-7-3-3-3-3--    5-5-5-5-5-5-5-5-7-|
E ------------------------------------------------------    ------------------|

Verse 2:

E ----------------------------------------------------------------------------|
B -3-3-3-3-3-3-3-3-3-3-3-3-3-3-3-3-3-3-3-3-3-3-3-3-3-3-3-3-3-3-3-3-3-3-3-3-3--|
G --3-3-3-3-3-3-3-3-3-3-3-3-3-3-3-3-3-3-3-3-3-3-3-3-3-3-3-3-3-3-3-3-3-3-3-3-3-|
D ----------------------------------------------------------------------------|
A ----------------------------------------------------------------------------|
E ----------------------------------------------------------------------------|

Chorus (guitar 1):
[ Tab from: http://www.guitaretab.com/g/gwen-stefani/59450.html ]
E ---------------------------------------------------------------------------|
B ---------------------------------------------------------------------------|
G ---------------------------------------------------------------------------|
D ---------------------------------------------------------------------------|
A -1-1-1-1-1-1-1-1-3-3-3-3-3-3-5-------------------------------1-1-1-1-1-1-1-|
E ------------------------------3-3-3-3-3-3-3-3-3-3-3-3-3-3-3-5--------------|

E ---------------------------------------------------------------------------|
B ---------------------------------------------------------------------------|
G ---------------------------------------------------------------------------|
D ---------------------------------------------------------------------------|
A -5-5-5-5-5-5-5-3-1---------------------------------------------------------|
E ------------------3-3-3-3-3-3-3-3-3-3-3-3-3-3-3-3--------------------------|

Chorus (guitar 2):

E ---------------------------------------------------------------------------|
B ---------------------------------------------------------------------------|
G -3-3-3-3-3-3-3-3-3-5-5-5-5-5-5-5-7-5-3-5-3[2nd time end by:-5-3-5-3]-------|
D -3-3-3-3-3-3-3-3-3-5-5-5-5-5-5-5-7-5-3-5-3------------------5-3-5-3--------|
A ---------------------------------------------------------------------------|
E ---------------------------------------------------------------------------|

Bridge:

E ---------------------------------------------------------------------------|
B ---------------------------------------------------------------------------|
G ---------------------------------------------------------------------------|
D ------2-2--3-3--5-5-------2-2--3-3--5-5------------------------------------|
A -5-5--0-0--1-1--3-3--5-5--0-0--1-1--3-3------------------------------------|
E -3-3-----------------3-3---------------------------------------------------|

And that's it! this song is very easy to play so grab your guitar and have fun!
Related for What You Waiting For tab